  0
SECTION
  2
HEADER
  9
$ACADVER
  1
AC1014
  9
$ACADMAINTVER
 70
     5
  9
$DWGCODEPAGE
  3
ANSI_1252
  9
$INSBASE
 10
0.0
 20
0.0
 30
0.0
  9
$EXTMIN
 10
-29.639415
 20
-8.841416
 30
0.0
  9
$EXTMAX
 10
509.23832
 20
447.715771
 30
0.0
  9
$LIMMIN
 10
0.0
 20
0.0
  9
$LIMMAX
 10
420.0
 20
297.0
  9
$ORTHOMODE
 70
     1
  9
$REGENMODE
 70
     1
  9
$FILLMODE
 70
     1
  9
$QTEXTMODE
 70
     0
  9
$MIRRTEXT
 70
     0
  9
$DRAGMODE
 70
     2
  9
$LTSCALE
 40
1.0
  9
$OSMODE
 70
    39
  9
$ATTMODE
 70
     1
  9
$TEXTSIZE
 40
3.5
  9
$TRACEWID
 40
0.05
  9
$TEXTSTYLE
  7
ROMANS
  9
$CLAYER
  8
0
  9
$CELTYPE
  6
BYLAYER
  9
$CECOLOR
 62
   256
  9
$CELTSCALE
 40
1.0
  9
$DELOBJ
 70
     1
  9
$DISPSILH
 70
     0
  9
$DIMSCALE
 40
1.0
  9
$DIMASZ
 40
2.5
  9
$DIMEXO
 40
1.5
  9
$DIMDLI
 40
5.0
  9
$DIMRND
 40
0.0
  9
$DIMDLE
 40
0.0
  9
$DIMEXE
 40
1.0
  9
$DIMTP
 40
0.0
  9
$DIMTM
 40
0.0
  9
$DIMTXT
 40
3.0
  9
$DIMCEN
 40
0.0
  9
$DIMTSZ
 40
0.0
  9
$DIMTOL
 70
     0
  9
$DIMLIM
 70
     0
  9
$DIMTIH
 70
     0
  9
$DIMTOH
 70
     0
  9
$DIMSE1
 70
     0
  9
$DIMSE2
 70
     0
  9
$DIMTAD
 70
     1
  9
$DIMZIN
 70
     8
  9
$DIMBLK
  1

  9
$DIMASO
 70
     1
  9
$DIMSHO
 70
     1
  9
$DIMPOST
  1

  9
$DIMAPOST
  1

  9
$DIMALT
 70
     0
  9
$DIMALTD
 70
     2
  9
$DIMALTF
 40
25.4
  9
$DIMLFAC
 40
1.0
  9
$DIMTOFL
 70
     1
  9
$DIMTVP
 40
0.0
  9
$DIMTIX
 70
     0
  9
$DIMSOXD
 70
     0
  9
$DIMSAH
 70
     0
  9
$DIMBLK1
  1

  9
$DIMBLK2
  1

  9
$DIMSTYLE
  2
STANDAARD
  9
$DIMCLRD
 70
   256
  9
$DIMCLRE
 70
   256
  9
$DIMCLRT
 70
     2
  9
$DIMTFAC
 40
0.75
  9
$DIMGAP
 40
1.0
  9
$DIMJUST
 70
     0
  9
$DIMSD1
 70
     0
  9
$DIMSD2
 70
     0
  9
$DIMTOLJ
 70
     1
  9
$DIMTZIN
 70
     8
  9
$DIMALTZ
 70
     8
  9
$DIMALTTZ
 70
     8
  9
$DIMFIT
 70
     0
  9
$DIMUPT
 70
     0
  9
$DIMUNIT
 70
     2
  9
$DIMDEC
 70
     2
  9
$DIMTDEC
 70
     2
  9
$DIMALTU
 70
     2
  9
$DIMALTTD
 70
     2
  9
$DIMTXSTY
  7
ROMANS
  9
$DIMAUNIT
 70
     0
  9
$LUNITS
 70
     2
  9
$LUPREC
 70
     2
  9
$SKETCHINC
 40
0.1
  9
$FILLETRAD
 40
10.0
  9
$AUNITS
 70
     0
  9
$AUPREC
 70
     2
  9
$MENU
  1
wtb2
  9
$ELEVATION
 40
0.0
  9
$PELEVATION
 40
0.0
  9
$THICKNESS
 40
0.0
  9
$LIMCHECK
 70
     0
  9
$BLIPMODE
 70
     0
  9
$CHAMFERA
 40
1.6
  9
$CHAMFERB
 40
2.5
  9
$CHAMFERC
 40
0.0
  9
$CHAMFERD
 40
0.0
  9
$SKPOLY
 70
     0
  9
$TDCREATE
 40
2452466.423157523
  9
$TDUPDATE
 40
2452466.669102662
  9
$TDINDWG
 40
0.0055206597
  9
$TDUSRTIMER
 40
0.0055206597
  9
$USRTIMER
 70
     1
  9
$ANGBASE
 50
0.0
  9
$ANGDIR
 70
     0
  9
$PDMODE
 70
     3
  9
$PDSIZE
 40
0.0
  9
$PLINEWID
 40
0.0
  9
$COORDS
 70
     2
  9
$SPLFRAME
 70
     0
  9
$SPLINETYPE
 70
     6
  9
$SPLINESEGS
 70
     8
  9
$ATTDIA
 70
     0
  9
$ATTREQ
 70
     1
  9
$HANDLING
 70
     1
  9
$HANDSEED
  5
10D4
  9
$SURFTAB1
 70
     6
  9
$SURFTAB2
 70
     6
  9
$SURFTYPE
 70
     6
  9
$SURFU
 70
     6
  9
$SURFV
 70
     6
  9
$UCSNAME
  2

  9
$UCSORG
 10
0.0
 20
0.0
 30
0.0
  9
$UCSXDIR
 10
1.0
 20
0.0
 30
0.0
  9
$UCSYDIR
 10
0.0
 20
1.0
 30
0.0
  9
$PUCSNAME
  2

  9
$PUCSORG
 10
0.0
 20
0.0
 30
0.0
  9
$PUCSXDIR
 10
1.0
 20
0.0
 30
0.0
  9
$PUCSYDIR
 10
0.0
 20
1.0
 30
0.0
  9
$USERI1
 70
     0
  9
$USERI2
 70
     0
  9
$USERI3
 70
     0
  9
$USERI4
 70
     0
  9
$USERI5
 70
     0
  9
$USERR1
 40
0.0
  9
$USERR2
 40
0.0
  9
$USERR3
 40
0.0
  9
$USERR4
 40
0.0
  9
$USERR5
 40
0.0
  9
$WORLDVIEW
 70
     1
  9
$SHADEDGE
 70
     3
  9
$SHADEDIF
 70
    70
  9
$TILEMODE
 70
     1
  9
$MAXACTVP
 70
    16
  9
$PINSBASE
 10
0.0
 20
0.0
 30
0.0
  9
$PLIMCHECK
 70
     0
  9
$PEXTMIN
 10
1.000000E+20
 20
1.000000E+20
 30
1.000000E+20
  9
$PEXTMAX
 10
-1.000000E+20
 20
-1.000000E+20
 30
-1.000000E+20
  9
$PLIMMIN
 10
0.0
 20
0.0
  9
$PLIMMAX
 10
12.0
 20
9.0
  9
$UNITMODE
 70
     0
  9
$VISRETAIN
 70
     0
  9
$PLINEGEN
 70
     0
  9
$PSLTSCALE
 70
     0
  9
$TREEDEPTH
 70
  3020
  9
$PICKSTYLE
 70
     1
  9
$CMLSTYLE
  2
STANDARD
  9
$CMLJUST
 70
     0
  9
$CMLSCALE
 40
1.0
  9
$PROXYGRAPHICS
 70
     1
  9
$MEASUREMENT
 70
     1
  0
ENDSEC
  0
SECTION
  2
CLASSES
  0
CLASS
  1
LWPOLYLINE
  2
AcDbPolyline
  3
"AutoCAD"
 90
        0
280
     0
281
     1
  0
CLASS
  1
AMLOADER
  2
AMLoader
  3
AMAcad
 90
        0
280
     0
281
     0
  0
ENDSEC
  0
SECTION
  2
TABLES
  0
TABLE
  2
VPORT
  5
8
100
AcDbSymbolTable
 70
     2
  0
VPORT
  5
10D3
100
AcDbSymbolTableRecord
100
AcDbViewportTableRecord
  2
*ACTIVE
 70
     0
 10
0.0
 20
0.0
 11
1.0
 21
1.0
 12
239.799452
 22
219.437178
 13
0.0
 23
0.0
 14
2.5
 24
2.5
 15
5.0
 25
5.0
 16
0.0
 26
0.0
 36
1.0
 17
0.0
 27
0.0
 37
0.0
 40
461.696667
 41
1.650376
 42
50.0
 43
0.0
 44
0.0
 50
0.0
 51
0.0
 71
     0
 72
 20000
 73
     1
 74
     0
 75
     0
 76
     0
 77
     0
 78
     1
  0
ENDTAB
  0
TABLE
  2
LTYPE
  5
5
100
AcDbSymbolTable
 70
     1
  0
LTYPE
  5
12
100
AcDbSymbolTableRecord
100
AcDbLinetypeTableRecord
  2
BYBLOCK
 70
     0
  3

 72
    65
 73
     0
 40
0.0
  0
LTYPE
  5
13
100
AcDbSymbolTableRecord
100
AcDbLinetypeTableRecord
  2
BYLAYER
 70
     0
  3

 72
    65
 73
     0
 40
0.0
  0
LTYPE
  5
14
100
AcDbSymbolTableRecord
100
AcDbLinetypeTableRecord
  2
CONTINUOUS
 70
     0
  3
Solid line
 72
    65
 73
     0
 40
0.0
  0
ENDTAB
  0
TABLE
  2
LAYER
  5
2
100
AcDbSymbolTable
 70
     4
  0
LAYER
  5
F
100
AcDbSymbolTableRecord
100
AcDbLayerTableRecord
  2
0
 70
     0
 62
     8
  6
CONTINUOUS
  0
LAYER
  5
99A
100
AcDbSymbolTableRecord
100
AcDbLayerTableRecord
  2
VHH-050
 70
     0
 62
     4
  6
CONTINUOUS
  0
LAYER
  5
99B
100
AcDbSymbolTableRecord
100
AcDbLayerTableRecord
  2
VHH-025
 70
     0
 62
     7
  6
CONTINUOUS
  0
LAYER
  5
99C
100
AcDbSymbolTableRecord
100
AcDbLayerTableRecord
  2
VHH-070
 70
     0
 62
     4
  6
CONTINUOUS
  0
ENDTAB
  0
TABLE
  2
STYLE
  5
3
100
AcDbSymbolTable
 70
     2
  0
STYLE
  5
10
100
AcDbSymbolTableRecord
100
AcDbTextStyleTableRecord
  2
STANDARD
 70
     0
 40
0.0
 41
1.0
 50
0.0
 71
     0
 42
15.0
  3
txt
  4

  0
STYLE
  5
1C
100
AcDbSymbolTableRecord
100
AcDbTextStyleTableRecord
  2
ROMANS
 70
     0
 40
0.0
 41
1.0
 50
0.0
 71
     0
 42
3.5
  3
romans
  4

  0
ENDTAB
  0
TABLE
  2
VIEW
  5
6
100
AcDbSymbolTable
 70
     2
  0
VIEW
  5
600
100
AcDbSymbolTableRecord
100
AcDbViewTableRecord
  2
VIEW0
 70
     0
 40
297.0
 10
210.0
 20
148.5
 41
420.0
 11
0.0
 21
0.0
 31
1.0
 12
0.0
 22
0.0
 32
0.0
 42
50.0
 43
0.0
 44
0.0
 50
0.0
 71
     0
  0
VIEW
  5
601
100
AcDbSymbolTableRecord
100
AcDbViewTableRecord
  2
VIEW1
 70
     0
 40
297.0
 10
210.0
 20
148.5
 41
420.0
 11
0.0
 21
0.0
 31
1.0
 12
0.0
 22
0.0
 32
0.0
 42
50.0
 43
0.0
 44
0.0
 50
0.0
 71
     0
  0
ENDTAB
  0
TABLE
  2
UCS
  5
7
100
AcDbSymbolTable
 70
     0
  0
ENDTAB
  0
TABLE
  2
APPID
  5
9
100
AcDbSymbolTable
 70
     3
  0
APPID
  5
11
100
AcDbSymbolTableRecord
100
AcDbRegAppTableRecord
  2
ACAD
 70
     0
  0
APPID
  5
37E
100
AcDbSymbolTableRecord
100
AcDbRegAppTableRecord
  2
ADMEPROFILELINK
 70
     0
  0
APPID
  5
974
100
AcDbSymbolTableRecord
100
AcDbRegAppTableRecord
  2
AMACAD
 70
     0
  0
ENDTAB
  0
TABLE
  2
DIMSTYLE
  5
A
100
AcDbSymbolTable
 70
     2
  0
DIMSTYLE
105
4E
100
AcDbSymbolTableRecord
100
AcDbDimStyleTableRecord
  2
STANDARD
 70
     0
  3

  4

  5

  6

  7

 40
1.0
 41
2.2
 42
1.5
 43
7.0
 44
1.2
 45
0.0
 46
0.0
 47
0.0
 48
0.0
140
2.5
141
-3.0
142
0.0
143
25.4
144
1.0
145
0.0
146
1.0
147
0.5
 71
     0
 72
     0
 73
     0
 74
     0
 75
     0
 76
     0
 77
     1
 78
     8
170
     0
171
     2
172
     1
173
     0
174
     0
175
     0
176
   256
177
   256
178
     2
270
     2
271
     4
272
     4
273
     2
274
     2
340
10
275
     0
280
     0
281
     0
282
     0
283
     1
284
     0
285
     0
286
     0
287
     3
288
     0
  0
DIMSTYLE
105
190
100
AcDbSymbolTableRecord
100
AcDbDimStyleTableRecord
  2
STANDAARD
 70
     0
  3

  4

  5

  6

  7

 40
1.0
 41
2.5
 42
1.5
 43
5.0
 44
1.0
 45
0.0
 46
0.0
 47
0.0
 48
0.0
140
3.0
141
0.0
142
0.0
143
25.4
144
1.0
145
0.0
146
0.75
147
1.0
 71
     0
 72
     0
 73
     0
 74
     0
 75
     0
 76
     0
 77
     1
 78
     8
170
     0
171
     2
172
     1
173
     0
174
     0
175
     0
176
   256
177
   256
178
     2
270
     2
271
     2
272
     2
273
     2
274
     2
340
1C
275
     0
280
     0
281
     0
282
     0
283
     1
284
     8
285
     8
286
     8
287
     0
288
     0
  0
ENDTAB
  0
TABLE
  2
BLOCK_RECORD
  5
1
100
AcDbSymbolTable
 70
     4
  0
BLOCK_RECORD
  5
18
100
AcDbSymbolTableRecord
100
AcDbBlockTableRecord
  2
*MODEL_SPACE
  0
BLOCK_RECORD
  5
15
100
AcDbSymbolTableRecord
100
AcDbBlockTableRecord
  2
*PAPER_SPACE
  0
BLOCK_RECORD
  5
1B2
100
AcDbSymbolTableRecord
100
AcDbBlockTableRecord
  2
TEK_INFO
  0
BLOCK_RECORD
  5
98B
100
AcDbSymbolTableRecord
100
AcDbBlockTableRecord
  2
A$C7A7B4A19
  0
BLOCK_RECORD
  5
990
100
AcDbSymbolTableRecord
100
AcDbBlockTableRecord
  2
A$C605007EB
  0
BLOCK_RECORD
  5
995
100
AcDbSymbolTableRecord
100
AcDbBlockTableRecord
  2
A$C32063EEB
  0
ENDTAB
  0
ENDSEC
  0
SECTION
  2
BLOCKS
  0
BLOCK
  5
46
100
AcDbEntity
  8
0
100
AcDbBlockBegin
  2
*MODEL_SPACE
 70
     0
 10
0.0
 20
0.0
 30
0.0
  3
*MODEL_SPACE
  1

  0
ENDBLK
  5
47
100
AcDbEntity
  8
0
100
AcDbBlockEnd
  0
BLOCK
  5
44
100
AcDbEntity
 67
     1
  8
0
100
AcDbBlockBegin
  2
*PAPER_SPACE
 70
     0
 10
0.0
 20
0.0
 30
0.0
  3
*PAPER_SPACE
  1

  0
ENDBLK
  5
45
100
AcDbEntity
 67
     1
  8
0
100
AcDbBlockEnd
  0
BLOCK
  5
1B9
100
AcDbEntity
  8
0
100
AcDbBlockBegin
  2
TEK_INFO
 70
     2
 10
0.0
 20
0.0
 30
0.0
  3
TEK_INFO
  1

  0
ATTDEF
  5
276
100
AcDbEntity
  8
0
100
AcDbText
 10
15.0
 20
31.5
 30
0.0
 40
2.5
  1
A3
  7
ROMANS
100
AcDbAttributeDefinition
  3

  2
FORMAAT
 70
     9
  0
ATTDEF
  5
277
100
AcDbEntity
  8
0
100
AcDbText
 10
15.0
 20
27.5
 30
0.0
 40
2.5
  1
hor
  7
ROMANS
100
AcDbAttributeDefinition
  3

  2
POSITIE
 70
     9
  0
ATTDEF
  5
278
100
AcDbEntity
  8
0
100
AcDbText
 10
15.0
 20
23.5
 30
0.0
 40
2.5
  1
1
  7
ROMANS
100
AcDbAttributeDefinition
  3

  2
AANTAL
 70
     9
  0
ATTDEF
  5
279
100
AcDbEntity
  8
0
100
AcDbText
 10
15.0
 20
19.5
 30
0.0
 40
2.5
  1
1
  7
ROMANS
100
AcDbAttributeDefinition
  3

  2
TEKSCHAAL
 70
     9
  0
ATTDEF
  5
27A
100
AcDbEntity
  8
0
100
AcDbText
 10
15.0
 20
15.5
 30
0.0
 40
2.5
  1
1
  7
ROMANS
100
AcDbAttributeDefinition
  3

  2
SNAPSCHAAL
 70
     9
  0
ATTDEF
  5
27B
100
AcDbEntity
  8
0
100
AcDbText
 10
15.0
 20
11.5
 30
0.0
 40
2.5
  1
1
  7
ROMANS
100
AcDbAttributeDefinition
  3

  2
BLADAANTAL
 70
     9
  0
ENDBLK
  5
1BA
100
AcDbEntity
  8
0
100
AcDbBlockEnd
  0
BLOCK
  5
98E
100
AcDbEntity
  8
0
100
AcDbBlockBegin
  2
A$C7A7B4A19
 70
     0
 10
0.0
 20
0.0
 30
0.0
  3
A$C7A7B4A19
  1

  0
LINE
  5
98C
100
AcDbEntity
  8
VHH-050
100
AcDbLine
 10
0.000002
 20
17.677669
 30
0.0
 11
35.355341
 21
17.677669
 31
0.0
  0
LINE
  5
98D
100
AcDbEntity
  8
VHH-050
100
AcDbLine
 10
17.677671
 20
-0.000001
 30
0.0
 11
17.677671
 21
35.355338
 31
0.0
  0
ENDBLK
  5
98F
100
AcDbEntity
  8
0
100
AcDbBlockEnd
  0
BLOCK
  5
993
100
AcDbEntity
  8
0
100
AcDbBlockBegin
  2
A$C605007EB
 70
     0
 10
0.0
 20
0.0
 30
0.0
  3
A$C605007EB
  1

  0
LINE
  5
991
100
AcDbEntity
  8
VHH-050
100
AcDbLine
 10
0.000002
 20
25.000002
 30
0.0
 11
25.000002
 21
0.000002
 31
0.0
  0
LINE
  5
992
100
AcDbEntity
  8
VHH-050
100
AcDbLine
 10
0.000002
 20
0.000002
 30
0.0
 11
25.000002
 21
25.000002
 31
0.0
  0
ENDBLK
  5
994
100
AcDbEntity
  8
0
100
AcDbBlockEnd
  0
BLOCK
  5
998
100
AcDbEntity
  8
0
100
AcDbBlockBegin
  2
A$C32063EEB
 70
     0
 10
0.0
 20
0.0
 30
0.0
  3
A$C32063EEB
  1

  0
CIRCLE
  5
996
100
AcDbEntity
  8
VHH-050
100
AcDbCircle
 10
8.838839
 20
8.838837
 30
0.0
 40
1.838835
  0
CIRCLE
  5
997
100
AcDbEntity
  8
VHH-050
100
AcDbCircle
 10
8.838839
 20
8.838837
 30
0.0
 40
8.838835
  0
ENDBLK
  5
999
100
AcDbEntity
  8
0
100
AcDbBlockEnd
  0
ENDSEC
  0
SECTION
  2
ENTITIES
  0
INSERT
  5
27C
100
AcDbEntity
  8
0
100
AcDbBlockReference
 66
     1
  2
TEK_INFO
 10
0.0
 20
0.0
 30
0.0
  0
ATTRIB
  5
27D
100
AcDbEntity
  8
0
100
AcDbText
 10
15.0
 20
31.5
 30
0.0
 40
2.5
  1
A3
  7
ROMANS
100
AcDbAttribute
  2
FORMAAT
 70
     9
  0
ATTRIB
  5
27E
100
AcDbEntity
  8
0
100
AcDbText
 10
15.0
 20
27.5
 30
0.0
 40
2.5
  1
hor
  7
ROMANS
100
AcDbAttribute
  2
POSITIE
 70
     9
  0
ATTRIB
  5
27F
100
AcDbEntity
  8
0
100
AcDbText
 10
15.0
 20
23.5
 30
0.0
 40
2.5
  1
1
  7
ROMANS
100
AcDbAttribute
  2
AANTAL
 70
     9
  0
ATTRIB
  5
280
100
AcDbEntity
  8
0
100
AcDbText
 10
15.0
 20
19.5
 30
0.0
 40
2.5
  1
1
  7
ROMANS
100
AcDbAttribute
  2
TEKSCHAAL
 70
     9
  0
ATTRIB
  5
281
100
AcDbEntity
  8
0
100
AcDbText
 10
15.0
 20
15.5
 30
0.0
 40
2.5
  1
1
  7
ROMANS
100
AcDbAttribute
  2
SNAPSCHAAL
 70
     9
  0
ATTRIB
  5
282
100
AcDbEntity
  8
0
100
AcDbText
 10
15.0
 20
11.5
 30
0.0
 40
2.5
  1
1
  7
ROMANS
100
AcDbAttribute
  2
BLADAANTAL
 70
     9
  0
SEQEND
  5
283
100
AcDbEntity
  8
0
  0
ARC
  5
D58
100
AcDbEntity
  8
VHH-025
100
AcDbCircle
 10
435.579092
 20
344.540198
 30
0.0
 40
61.5
100
AcDbArc
 50
291.642131
 51
307.663948
  0
ARC
  5
D59
100
AcDbEntity
  8
VHH-025
100
AcDbCircle
 10
430.607275
 20
328.22491
 30
0.0
 40
49.329327
100
AcDbArc
 50
303.410632
 51
328.85969
  0
ARC
  5
D5A
100
AcDbEntity
  8
VHH-025
100
AcDbCircle
 10
430.607275
 20
328.22491
 30
0.0
 40
46.241633
100
AcDbArc
 50
295.720623
 51
310.187569
  0
ARC
  5
D5B
100
AcDbEntity
  8
VHH-025
100
AcDbCircle
 10
434.982504
 20
347.216527
 30
0.0
 40
60.0
100
AcDbArc
 50
287.747333
 51
295.081486
  0
ARC
  5
D5C
100
AcDbEntity
  8
VHH-025
100
AcDbCircle
 10
472.70345
 20
230.669426
 30
0.0
 40
62.5
100
AcDbArc
 50
108.113958
 51
125.566996
  0
LWPOLYLINE
  5
D5D
100
AcDbEntity
  8
VHH-025
100
AcDbPolyline
 90
        8
 70
     1
 43
0.0
 10
259.953238
 20
421.69641
 10
1.053223
 20
421.69641
 42
0.414214
 10
0.053223
 20
420.69641
 10
0.053223
 20
58.5
 42
0.414214
 10
1.053223
 20
57.5
 10
259.953238
 20
57.5
 42
0.414214
 10
260.953238
 20
58.5
 10
260.953238
 20
420.69641
 42
0.414214
  0
SPLINE
  5
D5E
100
AcDbEntity
  8
VHH-025
100
AcDbSpline
210
0.0
220
0.0
230
1.0
 70
     8
 71
     3
 72
    22
 73
    18
 74
    16
 42
0.0000001
 43
0.0000001
 44
0.0000000001
 40
0.0
 40
0.0
 40
0.0
 40
0.0
 40
11.9266723288186
 40
35.75119428423271
 40
83.27038407458518
 40
95.13966726368973
 40
98.75816666673491
 40
119.4535408875665
 40
131.8464439121557
 40
138.3787297121161
 40
195.6146142919679
 40
217.0451355660508
 40
256.7570760748726
 40
276.7514675103843
 40
289.0074746257635
 40
297.1463274862855
 40
303.7076825123679
 40
303.7076825123679
 40
303.7076825123679
 40
303.7076825123679
 10
362.6891779671022
 20
357.8132680252438
 30
0.0
 10
363.5107886421337
 20
353.9240337293254
 30
0.0
 10
365.9736351142444
 20
342.265729795352
 30
0.0
 10
371.3066420128723
 20
314.9955465812999
 30
0.0
 10
373.6861270796466
 20
287.376462952557
 30
0.0
 10
376.2066506606062
 20
266.4505977032127
 30
0.0
 10
375.6331033159288
 20
254.3922896878113
 30
0.0
 10
375.8897750609007
 20
242.1571447447856
 30
0.0
 10
375.7563131353015
 20
228.9458002654198
 30
0.0
 10
377.056430217668
 20
203.5871999674451
 30
0.0
 10
373.8761061945612
 20
175.0472372490246
 30
0.0
 10
365.4119098632146
 20
136.5334321633713
 30
0.0
 10
357.6638863450407
 20
110.5386858085598
 30
0.0
 10
348.7589294188234
 20
88.26737261886101
 30
0.0
 10
343.560983736282
 20
75.83502147515112
 30
0.0
 10
341.3772697187019
 20
67.06288427002613
 30
0.0
 10
341.0764399986957
 20
62.1650320464023
 30
0.0
 10
340.9421663468819
 20
59.97890328193989
 30
0.0
 11
362.6891779671022
 21
357.8132680252438
 31
0.0
 11
365.1347366767058
 21
346.1400184589538
 31
0.0
 11
369.507096118119
 21
322.7201482774371
 31
0.0
 11
375.1393253932655
 21
275.5359200679631
 31
0.0
 11
376.0286451249412
 21
263.7000004231695
 31
0.0
 11
375.916094519478
 21
260.0832518431534
 31
0.0
 11
375.8137161302347
 21
239.3881308527925
 31
0.0
 11
375.9024417735945
 21
226.9955454430773
 31
0.0
 11
376.1544868261298
 21
220.4681239717874
 31
0.0
 11
371.1164720493125
 21
163.4543985125028
 31
0.0
 11
366.5388390924618
 21
142.5184839494541
 31
0.0
 11
355.0347814720625
 21
104.5093419275308
 31
0.0
 11
347.7399657751666
 21
85.89318354765055
 31
0.0
 11
343.3823368044759
 21
74.43801963935039
 31
0.0
 11
341.5223018604774
 21
66.51456105787656
 31
0.0
 11
340.9421663468819
 21
59.97890328193989
 31
0.0
  0
SPLINE
  5
D5F
100
AcDbEntity
  8
VHH-025
100
AcDbSpline
210
0.0
220
0.0
230
1.0
 70
     8
 71
     3
 72
    22
 73
    18
 74
    16
 42
0.0000001
 43
0.0000001
 44
0.0000000001
 40
0.0
 40
0.0
 40
0.0
 40
0.0
 40
18.96097446325756
 40
42.65108648039076
 40
66.30098948459862
 40
94.70816762102359
 40
132.6718217238831
 40
160.9343204565805
 40
189.1070753562886
 40
217.2937242282166
 40
236.1380332244873
 40
255.1012067380105
 40
274.132718831236
 40
288.3336699134921
 40
293.0716947717701
 40
295.4555487427823
 40
297.8394027137945
 40
297.8394027137945
 40
297.8394027137945
 40
297.8394027137945
 10
350.0712929081728
 20
357.8045062293786
 30
0.0
 10
351.2423658617387
 20
351.5940893386992
 30
0.0
 10
353.8765940715904
 20
337.6242889786531
 30
0.0
 10
358.134631117247
 20
315.9280802299625
 30
0.0
 10
361.1345276575353
 20
290.8421922837934
 30
0.0
 10
363.6092951953779
 20
260.9278617288444
 30
0.0
 10
363.6210156526419
 20
229.3255026432661
 30
0.0
 10
361.115053912828
 20
197.9492974946754
 30
0.0
 10
357.5804241891837
 20
169.9390750186095
 30
0.0
 10
352.3184395260577
 20
145.4109703355705
 30
0.0
 10
347.0794430484428
 20
124.0399608674731
 30
0.0
 10
341.4392670259646
 20
105.9439834231591
 30
0.0
 10
335.2544925133695
 20
89.64927386541942
 30
0.0
 10
332.4160870897888
 20
77.29825878084539
 30
0.0
 10
331.0198845024735
 20
70.3194023478048
 30
0.0
 10
330.7516119304386
 20
67.1600734267123
 30
0.0
 10
330.5873282730742
 20
65.57951800935555
 30
0.0
 10
330.5051864443921
 20
64.78924030067719
 30
0.0
 11
350.0712929081728
 21
357.8045062293786
 31
0.0
 11
353.6052524786991
 21
339.1757735201954
 31
0.0
 11
357.8453551080183
 21
315.8682009937147
 31
0.0
 11
360.8159745244993
 21
292.4056066701778
 31
0.0
 11
363.0138336484396
 21
264.0835801723105
 31
0.0
 11
363.0418064398527
 21
226.1199363750602
 31
0.0
 11
360.8972070657291
 21
197.9389227641158
 31
0.0
 11
357.1838656832133
 21
170.0119606232756
 31
0.0
 11
351.5056944486568
 21
142.4031659002093
 31
0.0
 11
346.9024848231674
 21
124.1297304626477
 31
0.0
 11
341.2637479188542
 21
106.0243004531748
 31
0.0
 11
335.1588199614379
 21
87.99853258633083
 31
0.0
 11
331.8074542884442
 21
74.19870071175683
 31
0.0
 11
330.9831731611993
 21
69.53292744455575
 31
0.0
 11
330.7441798027957
 21
67.16108387261647
 31
0.0
 11
330.5051864443921
 21
64.78924030067719
 31
0.0
  0
LWPOLYLINE
  5
D63
100
AcDbEntity
  8
VHH-025
100
AcDbPolyline
 90
       10
 70
     0
 43
0.0
 10
317.472241
 20
20.5
 10
331.053223
 20
20.5
 42
0.414214
 10
332.053223
 20
21.5
 10
332.053223
 20
56.5
 42
0.414214
 10
331.053223
 20
57.5
 10
1.053223
 20
57.5
 42
0.414214
 10
0.053223
 20
56.5
 10
0.053223
 20
21.5
 42
0.414214
 10
1.053223
 20
20.5
 10
14.602983
 20
20.5
  0
LINE
  5
D64
100
AcDbEntity
  8
VHH-025
100
AcDbLine
 10
319.053225
 20
0.999976
 30
0.0
 11
289.053222
 21
0.999976
 31
0.0
  0
LINE
  5
D65
100
AcDbEntity
  8
VHH-025
100
AcDbLine
 10
317.353223
 20
0.0
 30
0.0
 11
290.753223
 21
0.0
 31
0.0
  0
LINE
  5
D66
100
AcDbEntity
  8
VHH-025
100
AcDbLine
 10
340.448854
 20
59.500091
 30
0.0
 11
260.953223
 21
59.424751
 31
0.0
  0
LINE
  5
D67
100
AcDbEntity
  8
VHH-025
100
AcDbLine
 10
261.011979
 20
57.5
 30
0.0
 11
339.853223
 21
58.18855
 31
0.0
  0
SPLINE
  5
D68
100
AcDbEntity
  8
VHH-025
100
AcDbSpline
210
0.0
220
0.0
230
1.0
 70
     8
 71
     3
 72
    11
 73
     7
 74
     5
 42
0.0000001
 43
0.0000001
 44
0.0000000001
 40
0.0
 40
0.0
 40
0.0
 40
0.0
 40
13.28372143960388
 40
19.5648578086065
 40
27.05038666949625
 40
37.96817867755297
 40
37.96817867755297
 40
37.96817867755297
 40
37.96817867755297
 10
319.0532248773743
 20
0.999976177929966
 30
0.0
 10
318.7505511987803
 20
5.417824313682744
 30
0.0
 10
318.304759896168
 20
11.92462822319003
 30
0.0
 10
317.4466291238338
 20
20.9009549770838
 30
0.0
 10
316.5550643874197
 20
29.0810452884024
 30
0.0
 10
315.7639254178123
 20
35.1644493066625
 30
0.0
 10
315.2945812825255
 20
38.77343598060633
 30
0.0
 11
319.0532248773743
 21
0.999976177929966
 31
0.0
 11
318.0645901836869
 21
14.24685719677472
 31
0.0
 11
317.4722411956572
 21
20.50000014751458
 31
0.0
 11
316.658113778516
 21
27.94112498693721
 31
0.0
 11
315.2945812825255
 21
38.77343598060633
 31
0.0
  0
SPLINE
  5
D69
100
AcDbEntity
  8
VHH-025
100
AcDbSpline
210
0.0
220
0.0
230
-1.0
 70
     8
 71
     3
 72
    16
 73
    12
 74
    10
 42
0.0000001
 43
0.0000001
 44
0.0000000001
 40
0.0
 40
0.0
 40
0.0
 40
0.0
 40
6.716658977454626
 40
10.07885011730453
 40
15.40452524830312
 40
19.36348536797627
 40
22.33769485412773
 40
27.28503787636945
 40
34.34624314919291
 40
39.79793946521827
 40
46.11750119367329
 40
46.11750119367329
 40
46.11750119367329
 40
46.11750119367329
 10
289.1015073238868
 20
59.99972846093715
 30
0.0
 10
289.027472341169
 20
62.23966633882943
 30
0.0
 10
288.9163773016927
 20
65.6008609772842
 30
0.0
 10
288.2271849790208
 20
70.69158135679725
 30
0.0
 10
287.5837167454725
 20
74.8610906136438
 30
0.0
 10
286.0114436732838
 20
78.72326160063889
 30
0.0
 10
283.2813392530392
 20
81.65061595844056
 30
0.0
 10
278.9901973472782
 20
84.39786793699513
 30
0.0
 10
273.1621898585097
 20
85.38969905304318
 30
0.0
 10
266.9727687629556
 20
86.32078954453133
 30
0.0
 10
263.0559963932615
 20
86.61942008927629
 30
0.0
 10
260.9532232934743
 20
86.77974400320181
 30
0.0
 11
289.1015073238868
 21
59.99972846093715
 31
0.0
 11
288.7284831122997
 21
66.70602108480853
 31
0.0
 11
288.307041047934
 21
70.04169430730326
 31
0.0
 11
287.2778081745345
 21
75.26696896929479
 31
0.0
 11
285.6555969771252
 21
78.87831166421619
 31
0.0
 11
283.6715449696002
 21
81.09404172425275
 31
0.0
 11
279.499043442167
 21
83.75231823042941
 31
0.0
 11
272.6453990059999
 21
85.45178221873447
 31
0.0
 11
267.2476889129066
 21
86.21710468219863
 31
0.0
 11
260.9532232934743
 21
86.77974400320181
 31
0.0
  0
SPLINE
  5
D6A
100
AcDbEntity
  8
VHH-025
100
AcDbSpline
210
0.0
220
0.0
230
-1.0
 70
     8
 71
     3
 72
    15
 73
    11
 74
     9
 42
0.0000001
 43
0.0000001
 44
0.0000000001
 40
0.0
 40
0.0
 40
0.0
 40
0.0
 40
5.949972335375277
 40
11.27135610021527
 40
15.84972480747719
 40
19.55244050577565
 40
23.25582944081293
 40
28.88640238108159
 40
35.20654244556144
 40
38.36860966713439
 40
38.36860966713439
 40
38.36860966713439
 40
38.36860966713439
 10
260.9532232934725
 20
81.93125608066202
 30
0.0
 10
262.9320361469966
 20
81.78227347149109
 30
0.0
 10
266.6806089252509
 20
81.50004761462097
 30
0.0
 10
271.8985161490329
 20
80.65895989273869
 30
0.0
 10
276.3727422127535
 20
79.89956734366868
 30
0.0
 10
280.0988889441205
 20
78.20648745440661
 30
0.0
 10
282.840421332364
 20
74.55547434554387
 30
0.0
 10
283.1607884215009
 20
69.19359155503423
 30
0.0
 10
283.6292653345319
 20
64.2217465571974
 30
0.0
 10
283.7688433670607
 20
61.06022663585537
 30
0.0
 10
283.8153889769801
 20
60.0059427321139
 30
0.0
 11
260.9532232934725
 21
81.93125608066202
 31
0.0
 11
266.8790961390841
 21
81.39627775458302
 31
0.0
 11
272.1423135409277
 21
80.61163276885144
 31
0.0
 11
276.6151732525322
 21
79.63439890741392
 31
0.0
 11
279.9124115949671
 21
77.94966662731622
 31
0.0
 11
282.1562173778293
 21
75.00341049232884
 31
0.0
 11
283.1746194777042
 21
69.46570259116106
 31
0.0
 11
283.6585867722788
 21
63.16411976678864
 31
0.0
 11
283.8153889769801
 21
60.0059427321139
 31
0.0
  0
LWPOLYLINE
  5
D6B
100
AcDbEntity
  8
VHH-025
100
AcDbPolyline
 90
        2
 70
     0
 43
0.0
 10
41.441019
 20
20.5
 10
290.634205
 20
20.5
  0
LINE
  5
D6C
100
AcDbEntity
  8
VHH-025
100
AcDbLine
 10
41.501685
 20
19.9
 30
0.0
 11
290.573539
 21
19.9
 31
0.0
  0
INSERT
  5
D6D
100
AcDbEntity
  8
VHH-050
100
AcDbBlockReference
  2
A$C605007EB
 10
54.034688
 20
7.399998
 30
0.0
 41
-1.0
  0
LINE
  5
D6E
100
AcDbEntity
  8
VHH-025
100
AcDbLine
 10
43.022002
 20
0.999976
 30
0.0
 11
13.021999
 21
0.999976
 31
0.0
  0
LINE
  5
D6F
100
AcDbEntity
  8
VHH-025
100
AcDbLine
 10
41.322001
 20
0.0
 30
0.0
 11
14.722001
 21
0.0
 31
0.0
  0
ARC
  5
D70
100
AcDbEntity
  8
VHH-025
100
AcDbCircle
 10
28.515172
 20
-76.966469
 30
0.0
 40
117.793171
100
AcDbArc
 50
85.731713
 51
90.239884
  0
ARC
  5
D71
100
AcDbEntity
  8
VHH-025
100
AcDbCircle
 10
27.528829
 20
-76.966469
 30
0.0
 40
117.793171
100
AcDbArc
 50
89.760116
 51
94.268287
  0
SPLINE
  5
D72
100
AcDbEntity
  8
VHH-025
100
AcDbSpline
210
0.0
220
0.0
230
-1.0
 70
     8
 71
     3
 72
    12
 73
     8
 74
     6
 42
0.0000001
 43
0.0000001
 44
0.0000000001
 40
0.0
 40
0.0
 40
0.0
 40
0.0
 40
0.7759383456496045
 40
1.313673913555553
 40
1.814968045951308
 40
2.371579175916564
 40
2.926100784725513
 40
2.926100784725513
 40
2.926100784725513
 40
2.926100784725513
 10
16.78064264411659
 20
38.77343598060633
 30
0.0
 10
16.83206682880936
 20
39.02823095790022
 30
0.0
 10
16.91912865573865
 20
39.45960223482268
 30
0.0
 10
17.23211490033565
 20
39.99438635651781
 30
0.0
 10
17.68083092733862
 20
40.31079526506679
 30
0.0
 10
18.21315783035991
 20
40.42296048280308
 30
0.0
 10
18.57919049777231
 20
40.4743523756415
 30
0.0
 10
18.76186266332661
 20
40.49999999999999
 30
0.0
 11
16.78064264411659
 21
38.77343598060633
 31
0.0
 11
16.98357651064907
 21
39.52236732730216
 31
0.0
 11
17.26866856934248
 21
39.97830817769954
 31
0.0
 11
17.67689707887075
 21
40.26924681587388
 31
0.0
 11
18.21364769055981
 21
40.41660600578961
 31
0.0
 11
18.76186266332661
 21
40.49999999999999
 31
0.0
  0
SPLINE
  5
D73
100
AcDbEntity
  8
VHH-025
100
AcDbSpline
210
0.0
220
0.0
230
-1.0
 70
     8
 71
     3
 72
    11
 73
     7
 74
     5
 42
0.0000001
 43
0.0000001
 44
0.0000000001
 40
0.0
 40
0.0
 40
0.0
 40
0.0
 40
13.28372143960388
 40
19.56485780860684
 40
27.0503866694964
 40
37.96817867755311
 40
37.96817867755311
 40
37.96817867755311
 40
37.96817867755311
 10
13.02199904926601
 20
0.999976177929966
 30
0.0
 10
13.32467272785875
 20
5.417824313682861
 30
0.0
 10
13.77046403046917
 20
11.92462822319044
 30
0.0
 10
14.62859480281207
 20
20.90095497708345
 30
0.0
 10
15.52015953922092
 20
29.08104528840263
 30
0.0
 10
16.31129850882922
 20
35.16444930666256
 30
0.0
 10
16.78064264411659
 20
38.77343598060633
 30
0.0
 11
13.02199904926601
 21
0.999976177929966
 31
0.0
 11
14.01063374295335
 21
14.24685719677472
 31
0.0
 11
14.60298273098669
 21
20.50000014751458
 31
0.0
 11
15.41711014812608
 21
27.94112498693721
 31
0.0
 11
16.78064264411659
 21
38.77343598060633
 31
0.0
  0
LINE
  5
D74
100
AcDbEntity
  8
VHH-025
100
AcDbLine
 10
-7.146777
 20
39.0
 30
0.0
 11
-11.946777
 21
39.0
 31
0.0
  0
LINE
  5
D75
100
AcDbEntity
  8
VHH-025
100
AcDbLine
 10
-7.146777
 20
47.5
 30
0.0
 11
-11.946777
 21
47.5
 31
0.0
  0
LINE
  5
D76
100
AcDbEntity
  8
VHH-025
100
AcDbLine
 10
-7.146777
 20
30.5
 30
0.0
 11
-11.946777
 21
30.5
 31
0.0
  0
LINE
  5
D77
100
AcDbEntity
  8
VHH-025
100
AcDbLine
 10
0.053223
 20
52.0
 30
0.0
 11
-7.146777
 21
52.0
 31
0.0
  0
LINE
  5
D78
100
AcDbEntity
  8
VHH-025
100
AcDbLine
 10
14.722001
 20
1.0
 30
0.0
 11
14.722001
 21
0.0
 31
0.0
  0
LINE
  5
D79
100
AcDbEntity
  8
VHH-025
100
AcDbLine
 10
5.053223
 20
19.9
 30
0.0
 11
14.542316
 21
19.9
 31
0.0
  0
LINE
  5
D7A
100
AcDbEntity
  8
VHH-025
100
AcDbLine
 10
5.053223
 20
20.5
 30
0.0
 11
5.053223
 21
19.9
 31
0.0
  0
LINE
  5
D7B
100
AcDbEntity
  8
VHH-025
100
AcDbLine
 10
0.053223
 20
26.0
 30
0.0
 11
-7.146777
 21
26.0
 31
0.0
  0
LINE
  5
D7C
100
AcDbEntity
  8
VHH-025
100
AcDbLine
 10
-7.146777
 20
52.0
 30
0.0
 11
-7.146777
 21
26.0
 31
0.0
  0
LINE
  5
D7D
100
AcDbEntity
  8
VHH-025
100
AcDbLine
 10
-11.946777
 20
47.5
 30
0.0
 11
-11.946777
 21
30.5
 31
0.0
  0
INSERT
  5
D7E
100
AcDbEntity
  8
VHH-050
100
AcDbBlockReference
  2
A$C32063EEB
 10
8.838839
 20
-8.838837
 30
0.0
 41
-1.0
  0
INSERT
  5
D7F
100
AcDbEntity
  8
VHH-050
100
AcDbBlockReference
  2
A$C7A7B4A19
 10
5.730895
 20
21.322331
 30
0.0
 41
-1.0
  0
SPLINE
  5
D80
100
AcDbEntity
  8
VHH-025
100
AcDbSpline
210
0.0
220
0.0
230
1.0
 70
     8
 71
     3
 72
    11
 73
     7
 74
     5
 42
0.0000001
 43
0.0000001
 44
0.0000000001
 40
0.0
 40
0.0
 40
0.0
 40
0.0
 40
13.28372143960388
 40
19.56485780860667
 40
27.05038666949622
 40
37.96817867755294
 40
37.96817867755294
 40
37.96817867755294
 40
37.96817867755294
 10
43.02200221707062
 20
0.999976177929966
 30
0.0
 10
42.71932853847732
 20
5.417824313682808
 30
0.0
 10
42.27353723586609
 20
11.92462822319025
 30
0.0
 10
41.41540646352708
 20
20.90095497708357
 30
0.0
 10
40.52384172711724
 20
29.0810452884026
 30
0.0
 10
39.73270275750912
 20
35.16444930666255
 30
0.0
 10
39.26335862222186
 20
38.77343598060633
 30
0.0
 11
43.02200221707062
 21
0.999976177929966
 31
0.0
 11
42.03336752338327
 21
14.24685719677472
 31
0.0
 11
41.44101853535175
 21
20.50000014751458
 31
0.0
 11
40.62689111821237
 21
27.94112498693721
 31
0.0
 11
39.26335862222186
 21
38.77343598060633
 31
0.0
  0
SPLINE
  5
D81
100
AcDbEntity
  8
VHH-025
100
AcDbSpline
210
0.0
220
0.0
230
-1.0
 70
     8
 71
     3
 72
    12
 73
     8
 74
     6
 42
0.0000001
 43
0.0000001
 44
0.0000000001
 40
0.0
 40
0.0
 40
0.0
 40
0.0
 40
0.7759383456500803
 40
1.31367391355603
 40
1.814968045951784
 40
2.371579175917041
 40
2.926100784724191
 40
2.926100784724191
 40
2.926100784724191
 40
2.926100784724191
 10
39.26335862222186
 20
38.77343598060633
 30
0.0
 10
39.21193443752832
 20
39.02823095790019
 30
0.0
 10
39.12487261059775
 20
39.45960223482248
 30
0.0
 10
38.81188636600105
 20
39.99438635651779
 30
0.0
 10
38.36317033899798
 20
40.31079526506681
 30
0.0
 10
37.8308434359773
 20
40.42296048280289
 30
0.0
 10
37.46481076856553
 20
40.47435237564147
 30
0.0
 10
37.28213860301184
 20
40.49999999999999
 30
0.0
 11
39.26335862222186
 21
38.77343598060633
 31
0.0
 11
39.06042475568756
 21
39.52236732730216
 31
0.0
 11
38.77533269699415
 21
39.97830817769954
 31
0.0
 11
38.36710418746588
 21
40.26924681587388
 31
0.0
 11
37.83035357577682
 21
40.41660600578961
 31
0.0
 11
37.28213860301184
 21
40.49999999999999
 31
0.0
  0
LINE
  5
D82
100
AcDbEntity
  8
VHH-025
100
AcDbLine
 10
41.322001
 20
1.0
 30
0.0
 11
41.322001
 21
0.0
 31
0.0
  0
SPLINE
  5
D83
100
AcDbEntity
  8
VHH-025
100
AcDbSpline
210
0.0
220
0.0
230
-1.0
 70
     8
 71
     3
 72
    12
 73
     8
 74
     6
 42
0.0000001
 43
0.0000001
 44
0.0000000001
 40
0.0
 40
0.0
 40
0.0
 40
0.0
 40
0.7759383456496045
 40
1.313673913555553
 40
1.814968045951308
 40
2.371579175916564
 40
2.926100784723715
 40
2.926100784723715
 40
2.926100784723715
 40
2.926100784723715
 10
292.811865304422
 20
38.77343598060633
 30
0.0
 10
292.8632894891148
 20
39.02823095790022
 30
0.0
 10
292.950351316044
 20
39.45960223482268
 30
0.0
 10
293.2633375606412
 20
39.99438635651779
 30
0.0
 10
293.7120535876441
 20
40.31079526506682
 30
0.0
 10
294.2443804906648
 20
40.42296048280289
 30
0.0
 10
294.6104131580765
 20
40.47435237564147
 30
0.0
 10
294.7930853236302
 20
40.49999999999999
 30
0.0
 11
292.811865304422
 21
38.77343598060633
 31
0.0
 11
293.0147991709545
 21
39.52236732730216
 31
0.0
 11
293.2998912296479
 21
39.97830817769954
 31
0.0
 11
293.7081197391762
 21
40.26924681587388
 31
0.0
 11
294.2448703508653
 21
40.41660600578961
 31
0.0
 11
294.7930853236302
 21
40.49999999999999
 31
0.0
  0
LINE
  5
D84
100
AcDbEntity
  8
VHH-025
100
AcDbLine
 10
260.953238
 20
58.5
 30
0.0
 11
261.011979
 21
57.5
 31
0.0
  0
SPLINE
  5
D85
100
AcDbEntity
  8
VHH-025
100
AcDbSpline
210
0.0
220
0.0
230
-1.0
 70
     8
 71
     3
 72
    11
 73
     7
 74
     5
 42
0.0000001
 43
0.0000001
 44
0.0000000001
 40
0.0
 40
0.0
 40
0.0
 40
0.0
 40
13.28372143960388
 40
19.56485780860684
 40
27.0503866694964
 40
37.96817867755311
 40
37.96817867755311
 40
37.96817867755311
 40
37.96817867755311
 10
289.0532217095715
 20
0.999976177929966
 30
0.0
 10
289.3558953881642
 20
5.417824313682861
 30
0.0
 10
289.8016866907746
 20
11.92462822319044
 30
0.0
 10
290.6598174631175
 20
20.90095497708345
 30
0.0
 10
291.5513821995264
 20
29.08104528840263
 30
0.0
 10
292.3425211691347
 20
35.16444930666256
 30
0.0
 10
292.811865304422
 20
38.77343598060633
 30
0.0
 11
289.0532217095715
 21
0.999976177929966
 31
0.0
 11
290.0418564032588
 21
14.24685719677472
 31
0.0
 11
290.6342053912922
 21
20.50000014751458
 31
0.0
 11
291.4483328084315
 21
27.94112498693721
 31
0.0
 11
292.811865304422
 21
38.77343598060633
 31
0.0
  0
LINE
  5
D86
100
AcDbEntity
  8
VHH-025
100
AcDbLine
 10
290.753223
 20
1.0
 30
0.0
 11
290.753223
 21
0.0
 31
0.0
  0
SPLINE
  5
D87
100
AcDbEntity
  8
VHH-025
100
AcDbSpline
210
0.0
220
0.0
230
-1.0
 70
     8
 71
     3
 72
    12
 73
     8
 74
     6
 42
0.0000001
 43
0.0000001
 44
0.0000000001
 40
0.0
 40
0.0
 40
0.0
 40
0.0
 40
0.7759383456496045
 40
1.313673913555553
 40
1.814968045951308
 40
2.371579175916564
 40
2.926100784723715
 40
2.926100784723715
 40
2.926100784723715
 40
2.926100784723715
 10
315.2945812825255
 20
38.77343598060633
 30
0.0
 10
315.2431570978327
 20
39.02823095790022
 30
0.0
 10
315.1560952709035
 20
39.45960223482268
 30
0.0
 10
314.8431090263065
 20
39.99438635651779
 30
0.0
 10
314.3943929993034
 20
40.31079526506682
 30
0.0
 10
313.8620660962827
 20
40.42296048280289
 30
0.0
 10
313.496033428871
 20
40.47435237564147
 30
0.0
 10
313.3133612633173
 20
40.49999999999999
 30
0.0
 11
315.2945812825255
 21
38.77343598060633
 31
0.0
 11
315.091647415993
 21
39.52236732730216
 31
0.0
 11
314.8065553572996
 21
39.97830817769954
 31
0.0
 11
314.3983268477713
 21
40.26924681587388
 31
0.0
 11
313.8615762360823
 21
40.41660600578961
 31
0.0
 11
313.3133612633173
 21
40.49999999999999
 31
0.0
  0
ARC
  5
D88
100
AcDbEntity
  8
VHH-025
100
AcDbCircle
 10
303.560052
 20
-76.966469
 30
0.0
 40
117.793171
100
AcDbArc
 50
89.760116
 51
94.268287
  0
ARC
  5
D89
100
AcDbEntity
  8
VHH-025
100
AcDbCircle
 10
304.546395
 20
-76.966469
 30
0.0
 40
117.793171
100
AcDbArc
 50
85.731713
 51
90.239884
  0
LINE
  5
D8E
100
AcDbEntity
  8
VHH-025
100
AcDbLine
 10
369.856066
 20
67.5
 30
0.0
 11
369.856066
 21
87.5
 31
0.0
  0
LINE
  5
D8F
100
AcDbEntity
  8
VHH-025
100
AcDbLine
 10
460.332483
 20
0.0
 30
0.0
 11
509.220228
 21
0.0
 31
0.0
  0
LWPOLYLINE
  5
D90
100
AcDbEntity
  8
VHH-025
100
AcDbPolyline
 90
        4
 70
     0
 43
0.0
 10
491.565122
 20
0.0
 10
479.162747
 20
54.935396
 42
0.350577
 10
477.208738
 20
56.508727
 10
332.367467
 20
56.508727
  0
LWPOLYLINE
  5
D91
100
AcDbEntity
  8
VHH-025
100
AcDbPolyline
 90
        5
 70
     0
 43
0.0
 10
332.322011
 20
57.5
 10
493.42908
 20
57.499948
 42
-0.352487
 10
497.336777
 20
54.354286
 10
503.709693
 20
25.2049
 10
509.220228
 20
0.0
  0
LINE
  5
D92
100
AcDbEntity
  8
VHH-025
100
AcDbLine
 10
457.443867
 20
13.58987
 30
0.0
 11
356.979994
 21
13.58987
 31
0.0
  0
LINE
  5
D93
100
AcDbEntity
  8
VHH-025
100
AcDbLine
 10
356.979994
 20
4.5
 30
0.0
 11
454.756378
 21
4.5
 31
0.0
  0
LWPOLYLINE
  5
D94
100
AcDbEntity
  8
VHH-025
100
AcDbPolyline
 90
        4
 70
     0
 43
0.0
 10
332.053223
 20
20.5
 10
451.521261
 20
20.5
 42
-0.354119
 10
456.901073
 20
16.143514
 10
460.332483
 20
0.0
  0
LINE
  5
D95
100
AcDbEntity
  8
VHH-025
100
AcDbLine
 10
375.332483
 20
0.0
 30
0.0
 11
359.332483
 21
0.0
 31
0.0
  0
SPLINE
  5
D96
100
AcDbEntity
  8
VHH-025
100
AcDbSpline
210
0.0
220
0.0
230
1.0
 70
     8
 71
     3
 72
     9
 73
     5
 74
     3
 42
0.0000001
 43
0.0000001
 44
0.0000000001
 40
0.0
 40
0.0
 40
0.0
 40
0.0
 40
0.4063836000616385
 40
0.8021841324719616
 40
0.8021841324719616
 40
0.8021841324719616
 40
0.8021841324719616
 10
340.9421663468819
 20
59.97890328193989
 30
0.0
 10
340.9298592320108
 20
59.82300556113278
 30
0.0
 10
340.9055655049397
 20
59.51527001791443
 30
0.0
 10
340.5982456618058
 20
59.50505595018235
 30
0.0
 10
340.4466129473094
 20
59.50001629247435
 30
0.0
 11
340.9421663468819
 21
59.97890328193989
 31
0.0
 11
340.8326092023162
 21
59.58756600736251
 31
0.0
 11
340.4466129473094
 21
59.50001629247435
 31
0.0
  0
SPLINE
  5
D97
100
AcDbEntity
  8
VHH-025
100
AcDbSpline
210
0.0
220
0.0
230
-1.0
 70
     8
 71
     3
 72
     9
 73
     5
 74
     3
 42
0.0000001
 43
0.0000001
 44
0.0000000001
 40
0.0
 40
0.0
 40
0.0
 40
0.0
 40
0.5326241433832024
 40
0.8945290063674951
 40
0.8945290063674951
 40
0.8945290063674951
 40
0.8945290063674951
 10
340.4426178235699
 20
59.50000014751367
 30
0.0
 10
340.232389807967
 20
59.48828811456135
 30
0.0
 10
339.8793170825863
 20
59.46861804641006
 30
0.0
 10
339.8607393827834
 20
59.13498146298839
 30
0.0
 10
339.853223293474
 20
59.00000014751367
 30
0.0
 11
340.4426178235699
 21
59.50000014751367
 31
0.0
 11
339.9305222575785
 21
59.35355353810701
 31
0.0
 11
339.853223293474
 21
59.00000014751367
 31
0.0
  0
LWPOLYLINE
  5
D98
100
AcDbEntity
  8
VHH-025
100
AcDbPolyline
 90
        2
 70
     0
 43
0.0
 10
356.979994
 20
13.58987
 10
355.761552
 20
20.5
  0
LWPOLYLINE
  5
D99
100
AcDbEntity
  8
VHH-025
100
AcDbPolyline
 90
        2
 70
     0
 43
0.0
 10
346.147109
 20
13.58987
 10
344.928667
 20
20.5
  0
ELLIPSE
  5
D9A
100
AcDbEntity
  8
VHH-025
100
AcDbEllipse
 10
357.856066
 20
66.5
 30
0.0
 11
6.0
 21
0.0
 31
0.0
210
0.0
220
0.0
230
-1.0
 40
0.195141
 41
3.141592653589793
 42
6.283185307179587
  0
LINE
  5
D9B
100
AcDbEntity
  8
VHH-025
100
AcDbLine
 10
363.856066
 20
66.5
 30
0.0
 11
368.856066
 21
66.5
 31
0.0
  0
ARC
  5
D9C
100
AcDbEntity
  8
VHH-025
100
AcDbCircle
 10
368.856066
 20
67.5
 30
0.0
 40
1.0
100
AcDbArc
 50
270.0
 51
0.0
  0
LINE
  5
D9D
100
AcDbEntity
  8
VHH-025
100
AcDbLine
 10
341.520207
 20
66.5
 30
0.0
 11
351.856066
 21
66.5
 31
0.0
  0
LINE
  5
D9E
100
AcDbEntity
  8
VHH-025
100
AcDbLine
 10
359.332483
 20
0.0
 30
0.0
 11
359.17534
 21
4.5
 31
0.0
  0
ARC
  5
D9F
100
AcDbEntity
  8
VHH-025
100
AcDbCircle
 10
356.979994
 20
15.5
 30
0.0
 40
11.0
100
AcDbArc
 50
190.0
 51
270.0
  0
LINE
  5
DA0
100
AcDbEntity
  8
VHH-025
100
AcDbLine
 10
339.853223
 20
59.0
 30
0.0
 11
339.853223
 21
58.18855
 31
0.0
  0
LINE
  5
DA1
100
AcDbEntity
  8
VHH-025
100
AcDbLine
 10
375.332483
 20
0.0
 30
0.0
 11
375.489627
 21
4.5
 31
0.0
  0
LINE
  5
DA2
100
AcDbEntity
  8
VHH-025
100
AcDbLine
 10
317.532908
 20
19.9
 30
0.0
 11
327.053223
 21
19.9
 31
0.0
  0
LINE
  5
DA3
100
AcDbEntity
  8
VHH-025
100
AcDbLine
 10
327.053223
 20
20.5
 30
0.0
 11
327.053223
 21
19.9
 31
0.0
  0
LINE
  5
DA4
100
AcDbEntity
  8
VHH-025
100
AcDbLine
 10
317.353223
 20
1.0
 30
0.0
 11
317.353223
 21
0.0
 31
0.0
  0
LINE
  5
DA5
100
AcDbEntity
  8
VHH-025
100
AcDbLine
 10
332.053223
 20
20.5
 30
0.0
 11
332.322011
 21
57.5
 31
0.0
  0
LWPOLYLINE
  5
DA6
100
AcDbEntity
  8
VHH-025
100
AcDbPolyline
 90
        2
 70
     0
 43
0.0
 10
459.371193
 20
4.522512
 10
458.692764
 20
4.5
  0
LINE
  5
DA7
100
AcDbEntity
  8
VHH-025
100
AcDbLine
 10
454.756378
 20
4.5
 30
0.0
 11
458.692764
 21
4.5
 31
0.0
  0
LINE
  5
DB4
100
AcDbEntity
  8
VHH-025
100
AcDbLine
 10
368.856066
 20
88.5
 30
0.0
 11
348.807147
 21
88.5
 31
0.0
  0
ARC
  5
DB5
100
AcDbEntity
  8
VHH-025
100
AcDbCircle
 10
368.856066
 20
87.5
 30
0.0
 40
1.0
100
AcDbArc
 50
0.0
 51
90.0
  0
LINE
  5
DB6
100
AcDbEntity
  8
VHH-025
100
AcDbLine
 10
420.070776
 20
250.71968
 30
0.0
 11
375.980107
 21
261.742348
 31
0.0
  0
LINE
  5
DB7
100
AcDbEntity
  8
VHH-025
100
AcDbLine
 10
375.902442
 20
226.995545
 30
0.0
 11
429.861405
 21
227.466438
 31
0.0
  0
LINE
  5
DB8
100
AcDbEntity
  8
VHH-025
100
AcDbLine
 10
429.861405
 20
243.357009
 30
0.0
 11
375.764413
 21
251.292517
 31
0.0
  0
ARC
  5
DB9
100
AcDbEntity
  8
VHH-025
100
AcDbCircle
 10
450.976714
 20
261.234545
 30
0.0
 40
25.0
100
AcDbArc
 50
125.807709
 51
155.0
  0
ARC
  5
DBA
100
AcDbEntity
  8
VHH-025
100
AcDbCircle
 10
474.005615
 20
238.132823
 30
0.0
 40
53.758367
100
AcDbArc
 50
115.720623
 51
134.497865
  0
ARC
  5
DBB
100
AcDbEntity
  8
VHH-025
100
AcDbCircle
 10
449.255359
 20
277.998274
 30
0.0
 40
5.0
100
AcDbArc
 50
165.277858
 51
217.324284
  0
ARC
  5
DBC
100
AcDbEntity
  8
VHH-025
100
AcDbCircle
 10
474.005615
 20
238.132823
 30
0.0
 40
50.670673
100
AcDbArc
 50
126.175476
 51
136.549309
  0
ARC
  5
DBD
100
AcDbEntity
  8
VHH-025
100
AcDbCircle
 10
453.821922
 20
223.500001
 30
0.0
 40
1.0
100
AcDbArc
 50
270.000001
 51
2.000001
  0
LINE
  5
DBE
100
AcDbEntity
  8
VHH-025
100
AcDbLine
 10
444.184869
 20
265.780828
 30
0.0
 11
439.905432
 21
266.230615
 31
0.0
  0
ARC
  5
DBF
100
AcDbEntity
  8
VHH-025
100
AcDbCircle
 10
452.865562
 20
258.050001
 30
0.0
 40
0.75
100
AcDbArc
 50
2.0
 51
90.0
  0
ARC
  5
DC0
100
AcDbEntity
  8
VHH-025
100
AcDbCircle
 10
443.819019
 20
262.300001
 30
0.0
 40
3.5
100
AcDbArc
 50
270.0
 51
336.978578
  0
ARC
  5
DC1
100
AcDbEntity
  8
VHH-025
100
AcDbCircle
 10
443.819019
 20
262.300001
 30
0.0
 40
3.5
100
AcDbArc
 50
336.978578
 51
84.0
  0
ARC
  5
DC2
100
AcDbEntity
  8
VHH-025
100
AcDbCircle
 10
440.12427
 20
270.229647
 30
0.0
 40
4.0
100
AcDbArc
 50
136.549309
 51
264.0
  0
ARC
  5
DC3
100
AcDbEntity
  8
VHH-025
100
AcDbCircle
 10
440.532603
 20
272.197746
 30
0.0
 40
6.0
100
AcDbArc
 50
134.497865
 51
264.0
  0
ARC
  5
DC4
100
AcDbEntity
  8
VHH-025
100
AcDbCircle
 10
434.089001
 20
266.434443
 30
0.0
 40
14.071985
100
AcDbArc
 50
336.978578
 51
37.324284
  0
ARC
  5
DC5
100
AcDbEntity
  8
VHH-025
100
AcDbCircle
 10
430.319019
 20
260.800001
 30
0.0
 40
2.0
100
AcDbArc
 50
180.0
 51
270.0
  0
LINE
  5
DC6
100
AcDbEntity
  8
VHH-025
100
AcDbLine
 10
428.319019
 20
271.800001
 30
0.0
 11
428.319019
 21
260.800001
 31
0.0
  0
LINE
  5
DC7
100
AcDbEntity
  8
VHH-025
100
AcDbLine
 10
432.424156
 20
250.500001
 30
0.0
 11
430.614026
 21
250.500001
 31
0.0
  0
LINE
  5
DC8
100
AcDbEntity
  8
VHH-025
100
AcDbLine
 10
445.949513
 20
206.000001
 30
0.0
 11
429.949513
 21
206.000001
 31
0.0
  0
LINE
  5
DC9
100
AcDbEntity
  8
VHH-025
100
AcDbLine
 10
445.949513
 20
208.000001
 30
0.0
 11
429.949513
 21
208.000001
 31
0.0
  0
LINE
  5
DCA
100
AcDbEntity
  8
VHH-025
100
AcDbLine
 10
445.949512
 20
220.500001
 30
0.0
 11
429.949512
 21
220.500001
 31
0.0
  0
ARC
  5
DCB
100
AcDbEntity
  8
VHH-025
100
AcDbCircle
 10
430.949513
 20
203.500001
 30
0.0
 40
1.0
100
AcDbArc
 50
180.000001
 51
270.000001
  0
LINE
  5
DCC
100
AcDbEntity
  8
VHH-025
100
AcDbLine
 10
450.156125
 20
250.500001
 30
0.0
 11
451.332004
 21
250.500001
 31
0.0
  0
LINE
  5
DCD
100
AcDbEntity
  8
VHH-025
100
AcDbLine
 10
452.36355
 20
250.500001
 30
0.0
 11
453.099993
 21
250.500001
 31
0.0
  0
LINE
  5
DCE
100
AcDbEntity
  8
VHH-025
100
AcDbLine
 10
439.369916
 20
250.500001
 30
0.0
 11
441.335007
 21
250.500001
 31
0.0
  0
LINE
  5
DCF
100
AcDbEntity
  8
VHH-025
100
AcDbLine
 10
443.474868
 20
250.500001
 30
0.0
 11
445.284998
 21
250.500001
 31
0.0
  0
LINE
  5
DD0
100
AcDbEntity
  8
VHH-025
100
AcDbLine
 10
447.143561
 20
250.500001
 30
0.0
 11
448.684992
 21
250.500001
 31
0.0
  0
LINE
  5
DD1
100
AcDbEntity
  8
VHH-025
100
AcDbLine
 10
436.529108
 20
250.500001
 30
0.0
 11
434.564017
 21
250.500001
 31
0.0
  0
LINE
  5
DD2
100
AcDbEntity
  8
VHH-025
100
AcDbLine
 10
453.949512
 20
248.500001
 30
0.0
 11
454.821313
 21
223.534901
 31
0.0
  0
LINE
  5
DD3
100
AcDbEntity
  8
VHH-025
100
AcDbLine
 10
444.949513
 20
202.500001
 30
0.0
 11
430.949513
 21
202.500001
 31
0.0
  0
LINE
  5
DD4
100
AcDbEntity
  8
VHH-025
100
AcDbLine
 10
445.949513
 20
206.000001
 30
0.0
 11
445.949513
 21
203.500001
 31
0.0
  0
ARC
  5
DD5
100
AcDbEntity
  8
VHH-025
100
AcDbCircle
 10
444.949513
 20
203.500001
 30
0.0
 40
1.0
100
AcDbArc
 50
270.000001
 51
0.000001
  0
ARC
  5
DD6
100
AcDbEntity
  8
VHH-025
100
AcDbCircle
 10
447.949512
 20
220.500001
 30
0.0
 40
2.0
100
AcDbArc
 50
90.000001
 51
180.000001
  0
ARC
  5
DD7
100
AcDbEntity
  8
VHH-025
100
AcDbCircle
 10
446.699513
 20
207.000001
 30
0.0
 40
1.25
100
AcDbArc
 50
126.869898
 51
233.130103
  0
LINE
  5
DD8
100
AcDbEntity
  8
VHH-025
100
AcDbLine
 10
445.949512
 20
220.500001
 30
0.0
 11
445.949513
 21
208.000001
 31
0.0
  0
LINE
  5
DD9
100
AcDbEntity
  8
VHH-025
100
AcDbLine
 10
428.755463
 20
250.500001
 30
0.0
 11
427.214032
 21
250.500001
 31
0.0
  0
LINE
  5
DDA
100
AcDbEntity
  8
VHH-025
100
AcDbLine
 10
429.861405
 20
227.466438
 30
0.0
 11
429.861405
 21
244.184253
 31
0.0
  0
LINE
  5
DDB
100
AcDbEntity
  8
VHH-025
100
AcDbLine
 10
429.949513
 20
206.000001
 30
0.0
 11
429.949513
 21
203.500001
 31
0.0
  0
LINE
  5
DDC
100
AcDbEntity
  8
VHH-025
100
AcDbLine
 10
428.135749
 20
223.534901
 30
0.0
 11
428.134855
 21
223.500001
 31
0.0
  0
LINE
  5
DDD
100
AcDbEntity
  8
VHH-025
100
AcDbLine
 10
428.134855
 20
223.500001
 30
0.0
 11
428.155885
 21
223.331337
 31
0.0
  0
LINE
  5
DDE
100
AcDbEntity
  8
VHH-025
100
AcDbLine
 10
428.155885
 20
223.331337
 30
0.0
 11
428.157157
 21
223.326353
 31
0.0
  0
LINE
  5
DDF
100
AcDbEntity
  8
VHH-025
100
AcDbLine
 10
428.337493
 20
227.453139
 30
0.0
 11
428.135749
 21
223.534901
 31
0.0
  0
ARC
  5
DE0
100
AcDbEntity
  8
VHH-025
100
AcDbCircle
 10
427.949512
 20
220.500001
 30
0.0
 40
2.0
100
AcDbArc
 50
0.000001
 51
90.000001
  0
ARC
  5
DE1
100
AcDbEntity
  8
VHH-025
100
AcDbCircle
 10
429.199513
 20
207.000001
 30
0.0
 40
1.25
100
AcDbArc
 50
306.869898
 51
53.130103
  0
LINE
  5
DE2
100
AcDbEntity
  8
VHH-025
100
AcDbLine
 10
429.949512
 20
220.500001
 30
0.0
 11
429.949513
 21
208.000001
 31
0.0
  0
LINE
  5
DE3
100
AcDbEntity
  8
VHH-025
100
AcDbLine
 10
427.214032
 20
250.500001
 30
0.0
 11
427.394514
 21
258.050001
 31
0.0
  0
LINE
  5
DE4
100
AcDbEntity
  8
VHH-025
100
AcDbLine
 10
430.614026
 20
250.500001
 30
0.0
 11
430.741042
 21
258.050001
 31
0.0
  0
LINE
  5
DE5
100
AcDbEntity
  8
VHH-025
100
AcDbLine
 10
441.335007
 20
250.500001
 30
0.0
 11
441.26944
 21
258.050001
 31
0.0
  0
LINE
  5
DE6
100
AcDbEntity
  8
VHH-025
100
AcDbLine
 10
434.564017
 20
250.500001
 30
0.0
 11
434.629585
 21
258.050001
 31
0.0
  0
LINE
  5
DE7
100
AcDbEntity
  8
VHH-025
100
AcDbLine
 10
451.332004
 20
250.500001
 30
0.0
 11
451.109396
 21
258.050001
 31
0.0
  0
LINE
  5
DE8
100
AcDbEntity
  8
VHH-025
100
AcDbLine
 10
453.099993
 20
250.500001
 30
0.0
 11
452.849245
 21
258.050001
 31
0.0
  0
LINE
  5
DE9
100
AcDbEntity
  8
VHH-025
100
AcDbLine
 10
445.284998
 20
250.500001
 30
0.0
 11
445.157983
 21
258.050001
 31
0.0
  0
LINE
  5
DEA
100
AcDbEntity
  8
VHH-025
100
AcDbLine
 10
448.684992
 20
250.500001
 30
0.0
 11
448.50451
 21
258.050001
 31
0.0
  0
LINE
  5
DEB
100
AcDbEntity
  8
VHH-025
100
AcDbLine
 10
453.949512
 20
248.500001
 30
0.0
 11
453.615105
 21
258.076176
 31
0.0
  0
ARC
  5
DEC
100
AcDbEntity
  8
VHH-025
100
AcDbCircle
 10
430.607275
 20
328.22491
 30
0.0
 40
49.329327
100
AcDbArc
 50
295.720623
 51
303.410632
  0
ARC
  5
DED
100
AcDbEntity
  8
VHH-025
100
AcDbCircle
 10
474.005615
 20
238.132823
 30
0.0
 40
50.670673
100
AcDbArc
 50
115.720623
 51
126.175476
  0
ARC
  5
DEE
100
AcDbEntity
  8
VHH-025
100
AcDbCircle
 10
423.033463
 20
258.050001
 30
0.0
 40
0.75
100
AcDbArc
 50
90.0
 51
178.0
  0
LINE
  5
DEF
100
AcDbEntity
  8
VHH-025
100
AcDbLine
 10
423.535474
 20
250.500001
 30
0.0
 11
422.799031
 21
250.500001
 31
0.0
  0
LINE
  5
DF0
100
AcDbEntity
  8
VHH-025
100
AcDbLine
 10
421.092295
 20
223.326353
 30
0.0
 11
420.376881
 21
227.383668
 31
0.0
  0
ARC
  5
DF1
100
AcDbEntity
  8
VHH-025
100
AcDbCircle
 10
422.077103
 20
223.500001
 30
0.0
 40
1.0
100
AcDbArc
 50
190.000001
 51
270.000001
  0
LINE
  5
DF2
100
AcDbEntity
  8
VHH-025
100
AcDbLine
 10
424.56702
 20
250.500001
 30
0.0
 11
424.789629
 21
258.050001
 31
0.0
  0
LINE
  5
DF3
100
AcDbEntity
  8
VHH-025
100
AcDbLine
 10
422.799031
 20
250.500001
 30
0.0
 11
423.049779
 21
258.050001
 31
0.0
  0
LINE
  5
DF4
100
AcDbEntity
  8
VHH-025
100
AcDbLine
 10
421.973986
 20
249.200843
 30
0.0
 11
422.283919
 21
258.076176
 31
0.0
  0
SPLINE
  5
DF5
100
AcDbEntity
  8
VHH-025
100
AcDbSpline
210
0.0
220
0.0
230
1.0
 70
     8
 71
     3
 72
    15
 73
    11
 74
     9
 42
0.0000001
 43
0.0000001
 44
0.0000000001
 40
0.0
 40
0.0
 40
0.0
 40
0.0
 40
0.1323596920353512
 40
0.2943652284167204
 40
1.223465955565646
 40
2.382258466632258
 40
6.155798085584716
 40
8.743523072127992
 40
10.53077697569691
 40
11.83032934886039
 40
11.83032934886039
 40
11.83032934886039
 40
11.83032934886039
 10
420.0707764436319
 20
250.7196804377117
 30
0.0
 10
420.1128892696773
 20
250.7052824261296
 30
0.0
 10
420.2065473272589
 20
250.6732615449765
 30
0.0
 10
420.5194008762471
 20
250.4037382071465
 30
0.0
 10
421.0893471915771
 20
249.9240229069669
 30
0.0
 10
422.6008276218236
 20
248.68067036125
 30
0.0
 10
424.5966707277375
 20
247.1620802247006
 30
0.0
 10
426.8501880159792
 20
245.649938857375
 30
0.0
 10
428.4789662729862
 20
244.669731636334
 30
0.0
 10
429.4518280300109
 20
244.3280862941742
 30
0.0
 10
429.8614050140385
 20
244.1842528380448
 30
0.0
 11
420.0707764436319
 21
250.7196804377117
 31
0.0
 11
420.1933977050102
 21
250.6698495804676
 31
0.0
 11
420.3231888045957
 21
250.5728956517868
 31
0.0
 11
421.0330417699897
 21
249.9734484658647
 31
0.0
 11
421.928617084166
 21
249.2380948500158
 31
0.0
 11
424.9363544800853
 21
246.9592536942982
 31
0.0
 11
427.087599675644
 21
245.5210378848432
 31
0.0
 11
428.64806693444
 21
244.6497064610739
 31
0.0
 11
429.8614050140385
 21
244.1842528380448
 31
0.0
  0
LINE
  5
DF6
100
AcDbEntity
  8
VHH-025
100
AcDbLine
 10
452.865562
 20
258.800001
 30
0.0
 11
423.033463
 21
258.800001
 31
0.0
  0
LINE
  5
DF7
100
AcDbEntity
  8
VHH-025
100
AcDbLine
 10
422.077103
 20
222.500001
 30
0.0
 11
453.821922
 21
222.500001
 31
0.0
  0
LINE
  5
DF8
100
AcDbEntity
  8
VHH-025
100
AcDbLine
 10
422.859997
 20
248.500001
 30
0.0
 11
453.949512
 21
248.500001
 31
0.0
  0
LINE
  5
DF9
100
AcDbEntity
  8
VHH-025
100
AcDbLine
 10
425.7429
 20
250.500001
 30
0.0
 11
424.56702
 21
250.500001
 31
0.0
  0
LINE
  5
DFA
100
AcDbEntity
  8
VHH-025
100
AcDbLine
 10
421.092295
 20
223.326353
 30
0.0
 11
428.157157
 21
223.326353
 31
0.0
  0
ARC
  5
DFB
100
AcDbEntity
  8
VHH-025
100
AcDbCircle
 10
363.398531
 20
-72.906829
 30
0.0
 40
516.978761
100
AcDbArc
 50
94.581513
 51
106.918695
  0
LINE
  5
DFC
100
AcDbEntity
  8
VHH-025
100
AcDbLine
 10
260.953238
 20
359.19641
 30
0.0
 11
362.259706
 21
359.196413
 31
0.0
  0
LINE
  5
DFD
100
AcDbEntity
  8
VHH-025
100
AcDbLine
 10
260.953239
 20
358.2
 30
0.0
 11
362.202181
 21
358.2
 31
0.0
  0
ARC
  5
DFE
100
AcDbEntity
  8
VHH-025
100
AcDbCircle
 10
737.124023
 20
-3480.081109
 30
0.0
 40
3948.025825
100
AcDbArc
 50
95.916275
 51
96.252373
  0
ARC
  5
DFF
100
AcDbEntity
  8
VHH-025
100
AcDbCircle
 10
377.012421
 20
-48.472081
 30
0.0
 40
498.102065
100
AcDbArc
 50
95.227028
 51
98.061345
  0
SPLINE
  5
E00
100
AcDbEntity
  8
VHH-025
100
AcDbSpline
210
0.0
220
0.0
230
-1.0
 70
     8
 71
     3
 72
    16
 73
    12
 74
    10
 42
0.0000001
 43
0.0000001
 44
0.0000000001
 40
0.0
 40
0.0
 40
0.0
 40
0.0
 40
1.162224389486097
 40
2.355902817986244
 40
3.515791744985997
 40
4.373377683801759
 40
5.515721028603498
 40
6.396471174836377
 40
7.295099172861283
 40
7.900392698522902
 40
8.766036361285593
 40
8.766036361285593
 40
8.766036361285593
 40
8.766036361285593
 10
18.19609980652239
 20
429.5660786931403
 30
0.0
 10
18.1030679198115
 20
429.9460297604166
 30
0.0
 10
17.91448636357547
 20
430.7162147592783
 30
0.0
 10
17.14087990625736
 20
431.6535351464768
 30
0.0
 10
16.17687625282475
 20
432.1699890903738
 30
0.0
 10
15.1260708170391
 20
432.353378070518
 30
0.0
 10
14.15095427123027
 20
432.1591604822843
 30
0.0
 10
13.32542101322063
 20
431.6214792795405
 30
0.0
 10
12.77074585283775
 20
431.0389829799994
 30
0.0
 10
12.39411851827689
 20
430.3342862602873
 30
0.0
 10
12.29776393965038
 20
429.8506800206951
 30
0.0
 10
12.2410594583016
 20
429.5660786931403
 30
0.0
 11
18.19609980652239
 21
429.5660786931403
 31
0.0
 11
17.83673966895003
 21
430.6713505253338
 31
0.0
 11
17.08491110095201
 21
431.5985085458505
 31
0.0
 11
16.06455255842229
 21
432.1500615964842
 31
0.0
 11
15.21857963240836
 21
432.2907152523412
 31
0.0
 11
14.09849487477367
 21
432.0663083604522
 31
0.0
 11
13.35224816386107
 21
431.5985085458505
 31
0.0
 11
12.74206616617084
 21
430.9388039085097
 31
0.0
 11
12.45877302555709
 21
430.4038971421578
 31
0.0
 11
12.2410594583016
 21
429.5660786931403
 31
0.0
  0
ARC
  5
E01
100
AcDbEntity
  8
VHH-025
100
AcDbCircle
 10
15.21858
 20
433.7
 30
0.0
 40
3.0
100
AcDbArc
 50
7.018512
 51
172.981488
  0
LINE
  5
E02
100
AcDbEntity
  8
VHH-025
100
AcDbLine
 10
18.1961
 20
429.566079
 30
0.0
 11
19.131218
 21
421.7
 31
0.0
  0
LINE
  5
E03
100
AcDbEntity
  8
VHH-025
100
AcDbLine
 10
19.71858
 20
421.7
 30
0.0
 11
18.1961
 21
434.06657
 31
0.0
  0
LINE
  5
E04
100
AcDbEntity
  8
VHH-025
100
AcDbLine
 10
11.305941
 20
421.7
 30
0.0
 11
12.241059
 21
429.566079
 31
0.0
  0
LINE
  5
E05
100
AcDbEntity
  8
VHH-025
100
AcDbLine
 10
10.71858
 20
421.7
 30
0.0
 11
12.241059
 21
434.06657
 31
0.0
  0
SPLINE
  5
E06
100
AcDbEntity
  8
VHH-025
100
AcDbSpline
210
0.0
220
0.0
230
1.0
 70
     8
 71
     3
 72
    15
 73
    11
 74
     9
 42
0.0000001
 43
0.0000001
 44
0.0000000001
 40
0.0
 40
0.0
 40
0.0
 40
0.0
 40
4.439140532731176
 40
8.762030339452316
 40
13.06901262781278
 40
18.41765908871391
 40
25.00007356990209
 40
29.45382229860587
 40
33.9005291522209
 40
38.35401429886838
 40
38.35401429886838
 40
38.35401429886838
 40
38.35401429886838
 10
289.0598366679587
 20
357.700980193882
 30
0.0
 10
289.0422486789952
 20
356.216715884041
 30
0.0
 10
289.0075332894347
 20
353.287056681161
 30
0.0
 10
287.7481431967483
 20
349.041136261669
 30
0.0
 10
285.0091156176726
 20
345.1508876452579
 30
0.0
 10
280.2447930057464
 20
342.258555342964
 30
0.0
 10
274.8554982116147
 20
341.189921306141
 30
0.0
 10
269.8248558614833
 20
340.0474085995658
 30
0.0
 10
265.3939784959396
 20
339.542189706558
 30
0.0
 10
262.4342263996976
 20
339.3468817323425
 30
0.0
 10
260.9532232934743
 20
339.2491533729808
 30
0.0
 11
289.0598366679587
 21
357.700980193882
 31
0.0
 11
288.7992576125361
 21
353.269494300278
 31
0.0
 11
287.5309749170883
 21
349.1368395499412
 31
0.0
 11
285.0259888426444
 21
345.6332497909806
 31
0.0
 11
280.5216291038923
 21
342.7490233249036
 31
0.0
 11
274.1710550295483
 21
341.0174375405931
 31
0.0
 11
269.8072207193618
 21
340.1270287290526
 31
0.0
 11
265.3945696211594
 21
339.5777454437429
 31
0.0
 11
260.9532232934743
 21
339.2491533729808
 31
0.0
  0
SPLINE
  5
E07
100
AcDbEntity
  8
VHH-025
100
AcDbSpline
210
0.0
220
0.0
230
-1.0
 70
     8
 71
     3
 72
    15
 73
    11
 74
     9
 42
0.0000001
 43
0.0000001
 44
0.0000000001
 40
0.0
 40
0.0
 40
0.0
 40
0.0
 40
7.66925373709889
 40
15.45437869041519
 40
20.86081248323802
 40
24.06382690725214
 40
29.36972090551082
 40
33.62696527834327
 40
36.74194354924461
 40
38.79269265411778
 40
38.79269265411778
 40
38.79269265411778
 40
38.79269265411778
 10
260.8481983268629
 20
378.0817676217093
 30
0.0
 10
263.4008168226877
 20
377.8922915377723
 30
0.0
 10
268.5446201494448
 20
377.510476663168
 30
0.0
 10
275.3692970669058
 20
376.2132897644486
 30
0.0
 10
280.7074613155284
 20
374.8124199580745
 30
0.0
 10
284.6718023997181
 20
372.3014708430312
 30
0.0
 10
287.3428297533356
 20
368.827141128217
 30
0.0
 10
288.6754916812733
 20
364.7457151592244
 30
0.0
 10
288.8276729197068
 20
361.5978098963573
 30
0.0
 10
288.911527303411
 20
359.8788303022507
 30
0.0
 10
288.9448167687296
 20
359.1964102658312
 30
0.0
 11
260.8481983268629
 21
378.0817676217093
 31
0.0
 11
268.4844176098795
 21
377.3707064810951
 31
0.0
 11
276.1403834249722
 21
375.9584890839214
 31
0.0
 11
281.2866752698791
 21
374.301622582594
 31
0.0
 11
283.9814856873799
 21
372.5703518890941
 31
0.0
 11
287.2557446103801
 21
368.395218403095
 31
0.0
 11
288.5768462067953
 21
364.3481428883605
 31
0.0
 11
288.8450157874722
 21
361.2447294927287
 31
0.0
 11
288.9448167687296
 21
359.1964102658312
 31
0.0
  0
SPLINE
  5
E08
100
AcDbEntity
  8
VHH-025
100
AcDbSpline
210
0.0
220
0.0
230
1.0
 70
     8
 71
     3
 72
    14
 73
    10
 74
     8
 42
0.0000001
 43
0.0000001
 44
0.0000000001
 40
0.0
 40
0.0
 40
0.0
 40
0.0
 40
3.116915673786193
 40
5.817138702518656
 40
9.858090098074752
 40
13.8943412033543
 40
22.2705204283318
 40
27.50924725039745
 40
30.65402453277116
 40
30.65402453277116
 40
30.65402453277116
 40
30.65402453277116
 10
283.8415758835763
 20
357.6929672314272
 30
0.0
 10
283.8570646041896
 20
356.6530239619605
 30
0.0
 10
283.8859713971741
 20
354.7121648324962
 30
0.0
 10
283.3247853388708
 20
351.4433303520841
 30
0.0
 10
281.2423888200744
 20
348.2798611396658
 30
0.0
 10
276.1916347622342
 20
345.8004441074291
 30
0.0
 10
270.3223689232345
 20
345.0203199949068
 30
0.0
 10
264.7902093823436
 20
344.2716598874304
 30
0.0
 10
261.9999072075959
 20
344.098023804937
 30
0.0
 10
260.9532232934725
 20
344.0328903236595
 30
0.0
 11
283.8415758835763
 21
357.6929672314272
 31
0.0
 11
283.7846704720213
 21
354.5765710609075
 31
0.0
 11
283.2536959163262
 21
351.929068383647
 31
0.0
 11
281.011507168343
 21
348.5672418266003
 31
0.0
 11
277.4903557436118
 21
346.5942198731027
 31
0.0
 11
269.2916280942045
 21
344.8792145262341
 31
0.0
 11
264.0900367818758
 21
344.256553674938
 31
0.0
 11
260.9532232934725
 21
344.0328903236595
 31
0.0
  0
SPLINE
  5
E09
100
AcDbEntity
  8
VHH-025
100
AcDbSpline
210
0.0
220
0.0
230
-1.0
 70
     8
 71
     3
 72
    16
 73
    12
 74
    10
 42
0.0000001
 43
0.0000001
 44
0.0000000001
 40
0.0
 40
0.0
 40
0.0
 40
0.0
 40
5.497923559404869
 40
11.7538166166466
 40
15.98342477697864
 40
18.30450869996909
 40
21.45476475459101
 40
23.94926090769239
 40
27.59481708481429
 40
29.44434721605031
 40
31.29387734728632
 40
31.29387734728632
 40
31.29387734728632
 40
31.29387734728632
 10
260.8481984106565
 20
373.4571025894702
 30
0.0
 10
262.6806610895741
 20
373.3725298392872
 30
0.0
 10
266.5982183368013
 20
373.1917247433861
 30
0.0
 10
271.8547655068164
 20
372.2740756659839
 30
0.0
 10
276.0535236040019
 20
371.49220031262
 30
0.0
 10
279.1265760844066
 20
370.4144393084492
 30
0.0
 10
281.2637781930955
 20
368.7312584408301
 30
0.0
 10
283.0442228928189
 20
366.154491370469
 30
0.0
 10
283.6987096459615
 20
363.4915233000863
 30
0.0
 10
283.6968545859583
 20
361.0449122302782
 30
0.0
 10
283.7470722343988
 20
359.8125776321808
 30
0.0
 10
283.772181058619
 20
359.196410333132
 30
0.0
 11
260.8481984106565
 21
373.4571025894702
 31
0.0
 11
266.3342042316581
 21
373.0952965682427
 31
0.0
 11
272.5173691359341
 21
372.1441553010409
 31
0.0
 11
276.6489901479253
 21
371.2390072450744
 31
0.0
 11
278.8161731059754
 21
370.4078943743388
 31
0.0
 11
281.3049554714361
 21
368.4765540244643
 31
0.0
 11
282.7124260828568
 21
366.4170546834047
 31
0.0
 11
283.6471040809556
 21
362.8933553658662
 31
0.0
 11
283.7096425697873
 21
361.0448828494991
 31
0.0
 11
283.772181058619
 21
359.196410333132
 31
0.0
  0
ARC
  5
E0A
100
AcDbEntity
  8
VHH-025
100
AcDbCircle
 10
370.89623
 20
-16.6285
 30
0.0
 40
465.913779
100
AcDbArc
 50
97.861411
 51
109.816114
  0
LINE
  5
E0B
100
AcDbEntity
  8
VHH-025
100
AcDbLine
 10
307.169753
 20
444.906532
 30
0.0
 11
307.152221
 21
444.461178
 31
0.0
  0
LINE
  5
E0C
100
AcDbEntity
  8
VHH-025
100
AcDbLine
 10
354.624903
 20
393.596535
 30
0.0
 11
350.483595
 21
400.73552
 31
0.0
  0
SPLINE
  5
E0D
100
AcDbEntity
  8
VHH-025
100
AcDbSpline
210
0.0
220
0.0
230
-1.0
 70
     8
 71
     3
 72
    15
 73
    11
 74
     9
 42
0.0000001
 43
0.0000001
 44
0.0000000001
 40
0.0
 40
0.0
 40
0.0
 40
0.0
 40
1.144127971795948
 40
1.57090036091718
 40
2.18903106992155
 40
6.495683490754759
 40
30.77369532626181
 40
53.3117455063217
 40
70.84691920112984
 40
80.20316918957931
 40
80.20316918957931
 40
80.20316918957931
 40
80.20316918957931
 10
359.1757436855714
 20
371.6391161154088
 30
0.0
 10
358.8065750937376
 20
371.7005563471755
 30
0.0
 10
358.2997025336333
 20
371.7849144650055
 30
0.0
 10
357.544853442532
 20
371.9514785805616
 30
0.0
 10
356.7933230103891
 20
373.7332512751373
 30
0.0
 10
353.7571035663379
 20
382.5927485911045
 30
0.0
 10
349.0745547859409
 20
399.3693916933061
 30
0.0
 10
342.4015632588878
 20
419.6319817349497
 30
0.0
 10
336.5901350800413
 20
435.0826193113351
 30
0.0
 10
333.0290632322233
 20
443.3076602442477
 30
0.0
 10
331.7900705025167
 20
446.1693733331485
 30
0.0
 11
359.1757436855714
 21
371.6391161154088
 31
0.0
 11
358.0497646902677
 21
371.842094237335
 31
0.0
 11
357.6464685747505
 21
371.9816897792588
 31
0.0
 11
357.3141389094198
 21
372.5028831857362
 31
0.0
 11
355.8415592505844
 21
376.5499517819244
 31
0.0
 11
348.7628166950416
 21
399.7730709203469
 31
0.0
 11
341.7069215148658
 21
421.1781649197964
 31
0.0
 11
335.4586946848176
 21
437.5623639538462
 31
0.0
 11
331.7900705025167
 21
446.1693733331485
 31
0.0
  0
SPLINE
  5
E0E
100
AcDbEntity
  8
VHH-025
100
AcDbSpline
210
0.0
220
0.0
230
1.0
 70
     8
 71
     3
 72
    11
 73
     7
 74
     5
 42
0.0000001
 43
0.0000001
 44
0.0000000001
 40
0.0
 40
0.0
 40
0.0
 40
0.0
 40
12.81919231105582
 40
61.68837483382378
 40
89.8752963343751
 40
92.55604209165273
 40
92.55604209165273
 40
92.55604209165273
 40
92.55604209165273
 10
362.2597055768219
 20
359.1964126084876
 30
0.0
 10
361.2552427569552
 20
363.3507110646063
 30
0.0
 10
356.4215779335373
 20
383.3419799460006
 30
0.0
 10
346.998270968716
 20
411.7865089325914
 30
0.0
 10
338.2065154144415
 20
436.9480545392002
 30
0.0
 10
333.6524503594798
 20
446.1761006817147
 30
0.0
 10
333.2569462071096
 20
446.9775232621087
 30
0.0
 11
362.2597055768219
 21
359.1964126084876
 31
0.0
 11
359.1757436855714
 21
371.6391161154088
 31
0.0
 11
344.6620619159984
 21
418.303342691397
 31
0.0
 11
334.4347804407552
 21
444.5693903062247
 31
0.0
 11
333.2569462071096
 21
446.9775232621087
 31
0.0
  0
SPLINE
  5
E0F
100
AcDbEntity
  8
VHH-025
100
AcDbSpline
210
0.0
220
0.0
230
1.0
 70
     8
 71
     3
 72
    12
 73
     8
 74
     6
 42
0.0000001
 43
0.0000001
 44
0.0000000001
 40
0.0
 40
0.0
 40
0.0
 40
0.0
 40
21.22594818207389
 40
37.44771297309462
 40
64.35211818946618
 40
75.0939049528267
 40
86.13925381656343
 40
86.13925381656343
 40
86.13925381656343
 40
86.13925381656343
 10
349.6523946629204
 20
359.196410308371
 30
0.0
 10
348.1054624019486
 20
366.1018213185946
 30
0.0
 10
345.3762992663005
 20
378.2846386539584
 30
0.0
 10
339.797598115294
 20
398.9968916756176
 30
0.0
 10
334.7740802684548
 20
416.2561185667035
 30
0.0
 10
329.0526395349619
 20
431.4483996830934
 30
0.0
 10
326.5144450306164
 20
438.2524639436663
 30
0.0
 10
325.2276653334429
 20
441.7018968905031
 30
0.0
 11
349.6523946629204
 21
359.196410308371
 31
0.0
 11
344.845435616713
 21
379.8708878339621
 31
0.0
 11
340.683615351154
 21
395.5496921573912
 31
0.0
 11
332.8005919868264
 21
421.2733187035101
 31
0.0
 11
329.093627033104
 21
431.3552031355684
 31
0.0
 11
325.2276653334429
 21
441.7018968905031
 31
0.0
  0
SPLINE
  5
E10
100
AcDbEntity
  8
VHH-025
100
AcDbSpline
210
0.0
220
0.0
230
-1.0
 70
     8
 71
     3
 72
     9
 73
     5
 74
     3
 42
0.0000001
 43
0.0000001
 44
0.0000000001
 40
0.0
 40
0.0
 40
0.0
 40
0.0
 40
0.2961041595636031
 40
0.694275708566853
 40
0.694275708566853
 40
0.694275708566853
 40
0.694275708566853
 10
362.202181105622
 20
358.2000001646129
 30
0.0
 10
362.3106778516532
 20
358.2027452313534
 30
0.0
 10
362.5650702767344
 20
358.209181591988
 30
0.0
 10
362.6439436082126
 20
357.9575692874324
 30
0.0
 10
362.6891779671022
 20
357.8132680252438
 30
0.0
 11
362.202181105622
 21
358.2000001646129
 31
0.0
 11
362.4957449810062
 21
358.1612971365629
 31
0.0
 11
362.6891779671022
 21
357.8132680252438
 31
0.0
  0
ARC
  5
E11
100
AcDbEntity
  8
VHH-025
100
AcDbCircle
 10
353.759908
 20
393.094754
 30
0.0
 40
1.0
100
AcDbArc
 50
307.031902
 51
30.117917
  0
LINE
  5
E12
100
AcDbEntity
  8
VHH-025
100
AcDbLine
 10
354.362168
 20
392.296453
 30
0.0
 11
353.479406
 21
391.630474
 31
0.0
  0
ARC
  5
E13
100
AcDbEntity
  8
VHH-025
100
AcDbCircle
 10
430.607275
 20
328.22491
 30
0.0
 40
46.241633
100
AcDbArc
 50
310.187569
 51
329.136447
  0
LINE
  5
E14
100
AcDbEntity
  8
VHH-025
100
AcDbLine
 10
480.976104
 20
307.407707
 30
0.0
 11
475.021282
 21
304.673053
 31
0.0
  0
ARC
  5
E15
100
AcDbEntity
  8
VHH-025
100
AcDbCircle
 10
458.492024
 20
314.854384
 30
0.0
 40
24.0
100
AcDbArc
 50
307.665933
 51
339.8871
  0
ARC
  5
E16
100
AcDbEntity
  8
VHH-025
100
AcDbCircle
 10
480.089411
 20
306.945348
 30
0.0
 40
1.0
100
AcDbArc
 50
339.8871
 51
72.379007
  0
LINE
  5
E17
100
AcDbEntity
  8
VHH-025
100
AcDbLine
 10
477.202166
 20
308.638602
 30
0.0
 11
472.506
 21
306.481965
 31
0.0
  0
ARC
  5
E18
100
AcDbEntity
  8
VHH-025
100
AcDbCircle
 10
477.619497
 20
307.729847
 30
0.0
 40
1.0
100
AcDbArc
 50
72.379007
 51
114.666174
  0
LINE
  5
E19
100
AcDbEntity
  8
VHH-025
100
AcDbLine
 10
480.39213
 20
307.898428
 30
0.0
 11
477.922216
 21
308.682927
 31
0.0
  0
LINE
  5
E1A
100
AcDbEntity
  8
VHH-025
100
AcDbLine
 10
471.744491
 20
305.3092
 30
0.0
 11
473.15411
 21
304.238719
 31
0.0
  0
ARC
  5
E1B
100
AcDbEntity
  8
VHH-025
100
AcDbCircle
 10
474.592653
 20
301.938191
 30
0.0
 40
5.0
100
AcDbArc
 50
114.666174
 51
149.136447
  0
ARC
  5
E1C
100
AcDbEntity
  8
VHH-025
100
AcDbCircle
 10
477.107936
 20
300.12928
 30
0.0
 40
5.0
100
AcDbArc
 50
114.666174
 51
148.85969
  0
SPLINE
  5
E1D
100
AcDbEntity
  8
VHH-025
100
AcDbSpline
210
0.0
220
0.0
230
-1.0
 70
     8
 71
     3
 72
    11
 73
     7
 74
     5
 42
0.0000001
 43
0.0000001
 44
0.0000000001
 40
0.0
 40
0.0
 40
0.0
 40
0.0
 40
0.6268006055070936
 40
1.215244760831706
 40
1.618964794629464
 40
1.942964802854206
 40
1.942964802854206
 40
1.942964802854206
 40
1.942964802854206
 10
331.7900705025167
 20
446.1693733331467
 30
0.0
 10
331.6973181551444
 20
446.3658086994228
 30
0.0
 10
331.517489349606
 20
446.746658761806
 30
0.0
 10
330.9667955074454
 20
446.9386325925926
 30
0.0
 10
330.5302995334006
 20
446.9532904826393
 30
0.0
 10
330.288565853305
 20
446.927395348903
 30
0.0
 10
330.1809396923963
 20
446.9158661576493
 30
0.0
 11
331.7900705025167
 21
446.1693733331467
 31
0.0
 11
331.449685001553
 21
446.6956971021309
 31
0.0
 11
330.9069310294326
 21
446.9230396843349
 31
0.0
 11
330.5037407098498
 21
446.9437141101889
 31
0.0
 11
330.1809396923963
 21
446.9158661576493
 31
0.0
  0
SPLINE
  5
E1E
100
AcDbEntity
  8
VHH-025
100
AcDbSpline
210
0.0
220
0.0
230
-1.0
 70
     8
 71
     3
 72
    12
 73
     8
 74
     6
 42
0.0000001
 43
0.0000001
 44
0.0000000001
 40
0.0
 40
0.0
 40
0.0
 40
0.0
 40
0.2726448924860046
 40
0.7202654768540803
 40
1.190419341255433
 40
1.811244687624571
 40
1.828039750959956
 40
1.828039750959956
 40
1.828039750959956
 40
1.828039750959956
 10
333.2569462071096
 20
446.9775232621087
 30
0.0
 10
333.2035382956334
 20
447.0512721637349
 30
0.0
 10
333.0624468030463
 20
447.2460999021641
 30
0.0
 10
332.7318118202209
 20
447.486912175776
 30
0.0
 10
332.222447075794
 20
447.6070348929845
 30
0.0
 10
331.8514401754746
 20
447.5776636675073
 30
0.0
 10
331.6397243848923
 20
447.5591311108143
 30
0.0
 10
331.6341477439036
 20
447.5586429591512
 30
0.0
 11
333.2569462071096
 21
446.9775232621087
 31
0.0
 11
333.0882742421381
 21
447.1917311182469
 31
0.0
 11
332.7264318262532
 21
447.4552349201485
 31
0.0
 11
332.271546975342
 21
447.5740811595633
 31
0.0
 11
331.6508789371873
 21
447.5601062854111
 31
0.0
 11
331.6341477439036
 21
447.5586429591512
 31
0.0
  0
ENDSEC
  0
SECTION
  2
OBJECTS
  0
DICTIONARY
  5
C
100
AcDbDictionary
  3
ACAD_GROUP
350
D
  3
ACAD_MLINESTYLE
350
E
  3
AMACAD
350
975
  0
DICTIONARY
  5
D
102
{ACAD_REACTORS
330
C
102
}
100
AcDbDictionary
  0
DICTIONARY
  5
E
102
{ACAD_REACTORS
330
C
102
}
100
AcDbDictionary
  3
STANDARD
350
1B
  0
DICTIONARY
  5
975
102
{ACAD_REACTORS
330
C
102
}
100
AcDbDictionary
  3
AM_LOADER
350
976
  0
MLINESTYLE
  5
1B
102
{ACAD_REACTORS
330
E
102
}
100
AcDbMlineStyle
  2
STANDARD
 70
     0
  3

 62
     0
 51
90.0
 52
90.0
 71
     2
 49
0.5
 62
   256
  6
BYLAYER
 49
-0.5
 62
   256
  6
BYLAYER
  0
AMLOADER
  5
976
102
{ACAD_REACTORS
330
975
102
}
100
AMLoader
 90
        1
 70
     3
 70
     0
 70
   921
 70
   861
280
     0
  0
ENDSEC
  0
EOF
